Home » I » Imagine Dragons »

Imagine Dragons - Tiptoe Bass

Artists:  A B C D E F G H I J K L M N O P Q R S T U V W X Y Z # 

Tiptoe Bass

(ver. 2) Click to play this song!
Imagine Dragons
Great fun song by a great band!
Standard EADG tuning.

Verse (Start at 0:20):
   +   +   +   +    +   +   +   +    +   +   +   +    +   +   +   +   
G-|----------------|----------------|----------------|----------------|
D-|----------------|----------------|----------------|----------------| X4
A-|1~~~~~~~~~~~~~~~|4~~~~~~~~~~~~~~~|----------------|4~~~~~~~--------|
E-|----------------|----------------|2~~~~~~~~~~~~~~~|--------4~~~~~~~|

Pre-Chorus:
   +   +   +   +    +   +   +   +    +   +   +   +    +   +   +   +   
G-|----------------|----------------|----------------|----------------|
D-|----------------|----------------|----------------|----------------|
A-|----------------|----------------|4~~~~~~~~~~~~~~~|6~~~~~~~~~~~~~~~|
E-|4~~~~~~~~~~~~~~~|6~~~~~~~~~~~~~~~|----------------|----------------|

Chorus:
   +   +   +   +    +   +   +   +    +   +   +   +    +   +   +   +   
G-|----------------|----------------|----------------|----------------|
D-|4~~~4-4-4-4-4---|----------------|--------------3~~~~4~~~----------|
A-|--------------4~~~~4-4-4-4-4-4h6-|----------------|------4~~~~~4~~~|
E-|----------------|----------------|6~~~6-6-4h6~~---|----------------|

   +   +   +   +    +   +   +   +    +   +   +   +    +   +   +   +   
G-|----------------|----------------|----------------|----------------|
D-|4~~~4-4-4-4-4---|----------------|--------------3~~~~4~~~----------|
A-|--------------4~~~~4-4-4-4-4-6~--|----------------|------4~~~~~4~~~|
E-|----------------|----------------|6~~~6-6-4h6~----|----------------|

Verse

Pre-Chorus

Chrous

Bridge:
   +   +   +   +    +   +   +   +    +   +   +   +    +   +   +   +   
G-|----------------|----------------|----------------|----------------|
D-|------------4~~~|----------------|------------4~~~|----------------|\
A-|4~~~~~~~~~~~----|4~~~~~~~~~~~~~~~|4~~~~~~~~~~~----|4~~~~~~~~~~~~~~~| \
E-|----------------|----------------|----------------|----------------|  \
                                                                          X2
   +   +   +   +    +   +   +   +    +   +   +   +    +   +   +   +      /
G-|----------------|----------------|----------------|----------------| /
D-|------------4~~~|----------------|------------4~~~|----------------|/
A-|1~~~~~~~~~~~----|4~~~~~~~~~~~~~~~|4~~~~~~~~~~~----|4~~~~~~~~~~~~~~~|
E-|----------------|----------------|----------------|----------------|

Play Chorus to end
            
Submit corrections

↑ Back to top | Tablatures and chords for acoustic guitar and electric guitar, ukulele, drums are parodies/interpretations of the original songs. You may use it for private study, scholarship, research or language learning purposes only