Home » I » Imagine Dragons »

Imagine Dragons - Tiptoe Tabs

Artists:  A B C D E F G H I J K L M N O P Q R S T U V W X Y Z # 

Tiptoe Tabs

(ver. 1) Click to play this song!
Imagine Dragons
So not too many tabs for this song, and the ones that are up are just a bit off. 
Pretty simple and fun song by a great band.
Tuning: Drop D
Key:
~        Let Ring
Oct      Octave Chord

Chords:
   Bb  C#  F#  G#   
e|-----------------------------|
B|-----------------------------|
G|-3---6---6---8---------------|
D|-3---6---6---8---------------|
A|-1---4---4---6---------------|
D|---------4---6---------------|

   F#(Octave) G#(Octave) = Cool thing at chorus
e|---------------------------|
B|---------------------------|
G|-11---------13-------------|
D|-11---------13-------------|
A|-9----------11-------------|
D|---------------------------|

Begining kind of bass/techno thing: 
G|--------------------------|
D|--------------------------|
A|-1~--4~------4~-----------| 
D|---------4~------6~-------|

Guitar 1: 
(Verses are same, just in chord form, strum 8 times and so on)
e|-----------------------------|
B|-----------------------------|
G|-----------------------------|
D|-----------------------------|
A|-1-x8--4-x8--------4-x4------|   
D|-------------4-x8--------6-x4|

Intro: Bass x1 Then Bass+Guitar x3

Verse:
Bb              C# 
In morning light let my roots take flight
F#                 C#     G#     
Watch me from above like a vicious dove
Bb                    C#
They don't see me come, who can blame them?
F#                             C#    G#
They never seem to catch my eye but I never wondered why

Pre-Chorus :
F#           Bb
I won't fall asleep
F#           G#
I won't fall asleep

Chorus:
F#Oct    C#
Hey yeah, don't let 'em know we're coming
Bb        F#Oct G#Oct     C#
Hey yeah, tip---toe higher
Bb                C#
Take some time to- simmer down, keep your head down low
F#        C#    G# 
Hey yeah, tiptoe higher

Intro 

Verse 2:
Bb                   C#
F#                  C#        G#      
Sink into the soil, watch the water boil
Bb                 C#
They won't see me run, who can blame them?
F#                            C#         G#
They never look to see me fly, so I never have to lie

Pre-Chorus x1
Chorus x1

Not So Sure about this, could be F# the whole time, maybe a pattern of F# to C#, both sound good.

Bridge/Break:
F#           F#
Nobody else, nobody else
F#          (C#)  
Nobody else can take me higher
F#          (C#)
Nobody else can take me higher
F#          (C#)
Nobody else can take me higher
F#
Nobody else

Chorus x2
            
Submit corrections

↑ Back to top | Tablatures and chords for acoustic guitar and electric guitar, ukulele, drums are parodies/interpretations of the original songs. You may use it for private study, scholarship, research or language learning purposes only