Home » I » Imagine Dragons »

Imagine Dragons - Release Tabs

Artists:  A B C D E F G H I J K L M N O P Q R S T U V W X Y Z # 

Release Tabs

(ver. 1) Click to play this song!
Imagine Dragons
Riff 1
   
    Dm         C          Gm
e|----------------------------------------------|
B|------6----------5----------------------------|
G|--------7----------5--------3----------3------|
D|----7----------5--------------5----------5----|
A|--5-------5--3-------3----5----------5--------|
E|------------------------3-------3--3-------3--|



Riff 2

    A#                   F                    A#                   F          A
e|---------------------------------------------------------------------------------------|
B|------6---------6----------1---------1----------6---------6----------1----------5------|
G|--------7---------7----------2---------2----------7---------7----------2----6----------|
D|----8-----8---8-----8----3-----3---3-----3----8-----8---8-----8----3-----3----7---7----|
A|---------------------------------------------------------------------------------------|
E|--6---------6----------1---------1----------6---------6----------1----------5-------5--|



Riff 3

    A#                                   C
e|--------------------------------------------------------------|
B|------6---------6---------6------------8------8---8------8----|
G|--------7---------7---------7-----7---------9----------9------|
D|----8---------8---------8-----6----------10---------10--------|
A|--------------------------------------------------------------|
E|--6-------6-6-------6-6---------6-6----8--------8-8--------8--|
                

    Gm                   A#                   F
e|-----------------------------------------------------------------|
B|--3-----3---3-----3----------6---6-----6----1-----1---1-----1----|
G|------3---------3----------7---------7----------2---------2------|
D|-------------------------8---------8----------3---------3--------|
A|----5---------5--------------------------------------------------|
E|--3-------3-3-------3--6-------6-6-------6--1-------1-1-------1--|


    C                      Gm                   A#                   F        A
e|-------------------------------------------------------------------------------------|
B|--8------8---8------8----3-----3---3-----3----------6---6-----6----1-----1--5-----5--|
G|-------9----------9----------3---------3----------7---------7----------2--------6----|
D|----10---------10-------------------------------8---------8----------3--------7------|
A|---------------------------5---------5-----------------------------------------------|
E|--8--------8-8--------8--3-------3-3-------3--6-------6-6-------6--1--------5--------|

________________________________________________________________________________________

Whole song:     (time)

Riff 1 --- x5   (0:00)
Riff 2 --- x1   (0:25)
Riff 1 --- x7   (0:33)
Riff 2 --- x1   (1:05)
Riff 1 --- x5   (1:15)
Riff 3 --- x1   (1:38)
Riff 1 --- x5   (2:00)


Ends with
   
    A#
e|--------------------------------------|
B|------6---------6---------6-----------|
G|--------7---------7---------7------7--|
D|----8---------8---------8-----6-------|
A|--------------------------------------|
E|--6-------6-6-------6-6---------6--6--|
            
Submit corrections

↑ Back to top | Tablatures and chords for acoustic guitar and electric guitar, ukulele, drums are parodies/interpretations of the original songs. You may use it for private study, scholarship, research or language learning purposes only