Home » I » Imagine Dragons »

Imagine Dragons - Shots Tabs

Artists:  A B C D E F G H I J K L M N O P Q R S T U V W X Y Z # 

Shots Tabs

(ver. 1) Click to play this song!
Imagine Dragons
Intro:

e|-17-17-17-17------------------------12-12-14-14-15-15-15-15-------------------------|
B|------------15-15-15-15-15-15-15-15------------------------12-12-12-12-12-12-12-12--|
G|------------------------------------------------------------------------------------|
D|------------------------------------------------------------------------------------|
A|------------------------------------------------------------------------------------|
E|------------------------------------------------------------------------------------|

e|------12-12-14-14-14-14-14-14-14-14-15-15-15-15-12-12-12-12-12-12-12-12-------------|
B|-15-15------------------------------------------------------------------------------|
G|------------------------------------------------------------------------------------|
D|------------------------------------------------------------------------------------|
A|------------------------------------------------------------------------------------|
E|------------------------------------------------------------------------------------|

(x2)

Chords:

Video for reference: https://www.youtube.com/watch?v=y_HzKAuJ0kw

Bm: xx443x

D:  xx777x

A:  x776xx 

G:  x554xx

Strumming Pattern: D U D D XX D U DD            
Submit corrections

↑ Back to top | Tablatures and chords for acoustic guitar and electric guitar, ukulele, drums are parodies/interpretations of the original songs. You may use it for private study, scholarship, research or language learning purposes only