Home » I » Imagine Dragons »

Imagine Dragons - Stand By Me Live Tabs

Artists:  A B C D E F G H I J K L M N O P Q R S T U V W X Y Z # 

Stand By Me Live Tabs

(ver. 1) Click to play this song!
Imagine Dragons
Tuning:

e|---------------------------------------------------------------------------|
B|--------4--6-----------4---------------------------------------------------|
G|-3--/5----------3--/5-------5--/6--3----3h5--3h5--3------------------------|
D|---------------------------------------------------------------------------|
A|---------------------------------------------------------------------------|
E|---------------------------------------------------------------------------|

e|----2p1--------------------------------------------------------------------|
B|-1-------1h3--3--1--3----5--\3--1----16 \0---------------------------------|
G|---------------------------------------------------------------------------|
D|---------------------------------------------------------------------------|
A|---------------------------------------------------------------------------|
E|---------------------------------------------------------------------------|            
Submit corrections

↑ Back to top | Tablatures and chords for acoustic guitar and electric guitar, ukulele, drums are parodies/interpretations of the original songs. You may use it for private study, scholarship, research or language learning purposes only