Home » I » Imagine Dragons »

Imagine Dragons - Its Time Bass

Artists:  A B C D E F G H I J K L M N O P Q R S T U V W X Y Z # 

Its Time Bass

(ver. 1) Click to play this song!
Imagine Dragons
------------------------------
 It's time by Imagine Dragons
------------------------------

It's sounds like this but i'm not sure, enjoy :)


The bass starts at 0:36

Verse 1
G|-----7--------7------------------------------------------------------------|
D|-----------------------------------------------------------5--------5------|
A|---5---5----5---5------5--------5--------9--------9------------------------|
E|---------------------5---5----5---5----7---7----7---7----3---3----3---3-335|

Chorus
G|---------------------------------------------------------------------------|
D|---------------------------------------------------------------------------|
A|--5555555555555555-2222222222222222----------------------------------------|
E|------------------------------------0000000000000000-3333333333333333------|
 
Verse 2
G|----7--------7-------------------------------------------------------------|
D|----------------------------------------------------------5--------5-------|
A|--5---5----5---5------5--------5--------9--------9-------------------------|
E|--------------------5---5----5---5----7---7----7---7----3---3----3---3-3/5-|
 
G|----7--------7-------------------------------------------------------------|
D|----------------------------------------------------------5--------5-------|
A|--5---5----5---5------5--------5--------9--------9-------------------------|
E|--------------------5---5----5---5-0457---7----7---7----3---3----3---3-3/5-|

G|----7--------7-------------------------------------------------------------|
D|-------7--------7--------------------------9--------------5--------5-------|
A|--55--5----55--5------5--7-----5--------9--------9-----------5-------------|
E|--------------------55--5----55--5-55677--7----77--7-11233--3----33--3-335-|

Chorus x2 
G|---------------------------------------------------------------------------|
D|---------------------------------------------------------------------------|
A|--5555555555555555-2222222222222222----------------------------------------|
E|------------------------------------0000000000000000-3333333333333333------|
 
Bridge
G|---------------------------------------------------------------------------|
D|---------------------------------------------------------------------------|
A|--2222222x22222222---------------------------------------------------------|
E|-------------------5555555x55555555-3333333x30000000x03333333x355555555----|

G|------------------------------------|
D|------------------------------------|
A|------------------------------------|
E|--0000000000000000-3333333333333333-|
 
Final chorus
G|---------------------------------------------------------------------------|
D|---------------------------------------------------------------------------|
A|--2222222222222222---------------------------------------------------------|
E|-------------------5555555555555555-33333333-00000000-33333333-55555555----|
 
Outro
G|----7-------7--------7--------7--------------------------------------------|
D|-------7--------7--------7--------7----------------------------------------|
A|--55-5----55--5----55--5----55--5----5~------------------------------------|
E|---------------------------------------------------------------------------|


| /  slide up
| \  slide down
| h  hammer-on
| p  pull-off
| ~  vibrato
| +  harmonic
| x  Mute note
            
Submit corrections

↑ Back to top | Tablatures and chords for acoustic guitar and electric guitar, ukulele, drums are parodies/interpretations of the original songs. You may use it for private study, scholarship, research or language learning purposes only