Home » I » Imagine Dragons »

Imagine Dragons - On The Top Of The World Tabs

Artists:  A B C D E F G H I J K L M N O P Q R S T U V W X Y Z # 

On The Top Of The World Tabs

(ver. 1) Click to play this song!
Imagine Dragons
"h=hammer on
s=slide
 Play with a Capo on the 5th Fret
(tab is written as if there is no capo, the capo just makes it easier)

Intro and Low
e|-8-5-----5-------|
B|--8-8-5h8--------|
G|----------9s7s5--|
D|-----------------| x3
A|-----------------|
E|-----------------|

at the end of 3rd time
e|---------------------|
B|---------------------|
G|--9-7-5-10-9-7-5-----|
D|---------------------|
A|---------------------|
E|---------------------|

Chorus (I'm on top of the world...)

e|---8-8-5-5------8-8-5-5-12-10-4-4--4-4--8-8-5-5-------------------|
B|-----------8-8-----------------------------------8-8--------------|
G|------------------------------------------------------------------|    x2
D|------------------------------------------------------------------|
A|------------------------------------------------------------------|
E|------------------------------------------------------------------|

                                                                                         
              YS Tabs
"            
Submit corrections

↑ Back to top | Tablatures and chords for acoustic guitar and electric guitar, ukulele, drums are parodies/interpretations of the original songs. You may use it for private study, scholarship, research or language learning purposes only