Home » I » Imagine Dragons »

Imagine Dragons - Tiptoe Bass

Artists:  A B C D E F G H I J K L M N O P Q R S T U V W X Y Z # 

Tiptoe Bass

(ver. 1) Click to play this song!
Imagine Dragons
---------------------------
 Tiptoe by Imagine Dragons
---------------------------


Verse x4
G|---------------------------------------------------------------------------|
D|---------------------------------------------------------------------------|
A|-1111111111111111-44444444444444444------------------44444444--------------|
E|------------------------------------2222222222222222---------44444444------|

Pre-chorus
G|---------------------------------------------------------------------------|
D|---------------------------------------------------------------------------|
A|---------1~-------4~--------6~---------------------------------------------|
E|-4~------------------------------------------------------------------------|

Chorus x2
G|---------------------------------------------------------------------------|
D|-4-4-4-4-4-4-4-------------------------------------------------------------|
A|---------------4-4-4-4-4-4-6-------------8-9-4-4---------------------------|
E|-----------------------------6-6-4-6-6-6-----------------------------------|

Verse x4
G|---------------------------------------------------------------------------|
D|---------------------------------------------------------------------------|
A|-1111111111111111-44444444444444444------------------44444444--------------|
E|------------------------------------2222222222222222---------44444444------|

Pre-chorus
G|---------------------------------------------------------------------------|
D|---------------------------------------------------------------------------|
A|---------1~-------4~--------6~---------------------------------------------|
E|-4~------------------------------------------------------------------------|

Chorus x2
G|---------------------------------------------------------------------------|
D|-4-4-4-4-4-4-4-------------------------------------------------------------|
A|---------------4-4-4-4-4-4-6-------------8-9-4-4---------------------------|
E|-----------------------------6-6-4-6-6-6-----------------------------------|

Interlude/Bridge
G|---------------------------------------------------------------------------|
D|-----4------------4---------4-------------4---------4----------------------|
A|-4~----4--x2--1~----4---4~----4---x3--1~----4---4~----4--------------------|
E|---------------------------------------------------------------------------|

Chorus x4
G|---------------------------------------------------------------------------|
D|-4-4-4-4-4-4-4-------------------------------------------------------------|
A|---------------4-4-4-4-4-4-6-------------8-9-4-4---------------------------|
E|-----------------------------6-6-4-6-6-6-----------------------------------|
            
Submit corrections

↑ Back to top | Tablatures and chords for acoustic guitar and electric guitar, ukulele, drums are parodies/interpretations of the original songs. You may use it for private study, scholarship, research or language learning purposes only