Home » I » Imagine Dragons »

Imagine Dragons - Its Time Tabs

Artists:  A B C D E F G H I J K L M N O P Q R S T U V W X Y Z # 

Its Time Tabs

(ver. 1) Click to play this song!
Imagine Dragons
It's Time

intro:
e|---0-2-0---2-0---2-0---x3---0-2-0--2-0---5--------------------------------|
B|-3-------3-----3----------3-------3----3----------------------------------|
G|--------------------------------------------------------------------------|
D|--------------------------------------------------------------------------|
A|--------------------------------------------------------------------------|
E|--------------------------------------------------------------------------|

verse: (play twice)

e|---0-2-0---2-0---2-0---x6---0-2-0--2-0---5--------------------------------|
B|-3-------3-----3----------3-------3----3----------------------------------|
G|--------------------------------------------------------------------------|
D|--------------------------------------------------------------------------|
A|--------------------------------------------------------------------------|
E|--------------------------------------------------------------------------|

chorus: (just vocals)

play intro after chorus
            
Submit corrections

↑ Back to top | Tablatures and chords for acoustic guitar and electric guitar, ukulele, drums are parodies/interpretations of the original songs. You may use it for private study, scholarship, research or language learning purposes only