Home » T » The Cribs »

The Cribs - I'm A Realist Tabs

Artists:  A B C D E F G H I J K L M N O P Q R S T U V W X Y Z # 

I'm A Realist Tabs

(ver. 3) Click to play this song!
The Cribs
im a realist

intro.. (mute some notes at first)
e---------------22----------------------222------------------2--------0------0------|
b---------222-------222---555---22--------222---------------------------------------|
g---222--------------------------------------------22---111------1------1-----------|
d-----------------------------------------------------------------------------------|
a-----------------------------------------------------------------------------------|
e-----------------------------------------------------------------------------------|


verse.. (the cribs play it like this..)
e-------------------------------------------------------------------------------------|
b-------------------------------------------------------------------------------------|
g----------6-----------6----------------------6-6-7---6-6-7--------------4/6----|
d--/9-7-9----9-9-7-9---7-7-7-6--6-7-7-7-6-5-4--------4--------4-4-4-2--2-----2-4-4-2--|
a-------------------------------------------------------------------------------------|
e-------------------------------------------------------------------------------------|

or

(another way)
e--------------------------------------------------------------------------------------------------|
b----------2-----------2---------------------------------------------------------------------------|
g--/4-2-4----4-4-2-4----2-2-2-1--1-2-2-2-1--1---6-6-7----6-6-7----------------4-6------------------|
d----------------------------------------------------4--------4----------4-4-4-2--2-------2-4-4-2--|
a--------------------------------------------------------------------------------------------------|
e--------------------------------------------------------------------------------------------------|

chorus.. (same as intro, but played a bit faster)
e---------------22----------------------222------------------2--------0------0------|
b---------222-------222---555---22--------222---------------------------------------|
g---222--------------------------------------------22---111------1------1-----------|
d-----------------------------------------------------------------------------------|
a-----------------------------------------------------------------------------------|
e-----------------------------------------------------------------------------------|
            
Submit corrections

↑ Back to top | Tablatures and chords for acoustic guitar and electric guitar, ukulele, drums are parodies/interpretations of the original songs. You may use it for private study, scholarship, research or language learning purposes only