Home » T » The Cribs »

The Cribs - Mirror Kissers Tabs

Artists:  A B C D E F G H I J K L M N O P Q R S T U V W X Y Z # 

Mirror Kissers Tabs

(ver. 1) Click to play this song!
The Cribs

Intro
e-7x7x7x7x7x7x7------|
b-9x9x9x9x9x9x9------|
g-8x8x8x8x8x8x8------|
d-9x9x9x9x9x9x9------|
a--------------------|
e--------------------|

verse
e-7x7x7x7x7--2x2x2x2x2--4x4x4x4x4-|
b-9x9x9x9x9--2x2x2x2x2--4x4x4x4x4-|
g-8x8x8x8x8--2x2x2x2x2--4x4x4x4x4-|
d-9x9x9x9x9--2x2x2x2x2--4x4x4x4x4-|
a---------------------------------|
e---------------------------------| 

0.52
e------------7---9b-9b-7-|
b-----7--9b--------------|
g-8h9--------------------|
d------------------------|
a------------------------|
E------------------------|

then back to the verse


2.27
e--------------------------------------------------------|
b-17-17-17-17-17-17-17--19--20----------19--20-----------|
g-------------------------------18-16-----------18--16---|
d--------------------------------------------------------|
a--------------------------------------------------------|
E--------------------------------------------------------| play x2

back to the intro chord

e-7x7x7x7x7x7x7------|
b-9x9x9x9x9x9x9------|
g-8x8x8x8x8x8x8------|
d-9x9x9x9x9x9x9------|
a--------------------|
e--------------------|
            
Submit corrections

↑ Back to top | Tablatures and chords for acoustic guitar and electric guitar, ukulele, drums are parodies/interpretations of the original songs. You may use it for private study, scholarship, research or language learning purposes only