Home » T » The Cribs »

The Cribs - The New Fellas Tabs

Artists:  A B C D E F G H I J K L M N O P Q R S T U V W X Y Z # 

The New Fellas Tabs

(ver. 1) Click to play this song!
The Cribs

Tuning: Standard
Intro/verse
   B  C#m9 F#13 B
e|-7--11---11---7------------------------------------------------------------|
B|-7--9----11---7------------------------------------------------------------|
G|-8--9----11---8------------------------------------------------------------|
D|---------------------------------------------------------------------------|
A|---------------------------------------------------------------------------|
E|---------------------------------------------------------------------------|
Chorus
   B  D#m  E   F#7 G#m D#m E          F#7
e|-7--11---12--9---11--6-----------------------------------------------------|
B|-7--11---12--11--12--7-----------------------------------------------------|
G|-8--11---13--9---13--8---8-9-----8-----------------------------------------|
D|-----------------------------6-6----6--------------------------------------|
A|--------------------------------------9------------------------------------|
E|---------------------------------------------------------------------------|

Bridge
B G#m E F# B6
************************************

| /   slide up
| \   slide down
| h   hammer-on
| p   pull-off
| ~   vibrato
| +   harmonic
| x   Mute note
| b   Bend
| pb  Pre-bend
| br  Bend release
| pbr Pre-bend release
| brb Bend release bend

************************************
            
Submit corrections

↑ Back to top | Tablatures and chords for acoustic guitar and electric guitar, ukulele, drums are parodies/interpretations of the original songs. You may use it for private study, scholarship, research or language learning purposes only