Home » T » The Cribs »

The Cribs - I'm A Realist Bass

Artists:  A B C D E F G H I J K L M N O P Q R S T U V W X Y Z # 

I'm A Realist Bass

(ver. 2) Click to play this song!
The Cribs
The Cribs
I'm A Realist
Men's Need's, Women's Need’s, whatever

By
Ben James

Intro

After the opening guitar riff

G|----------|----------|-7777-7777-|----------|
D|-7777-7777|-6666-66--|-----------|-6666-66--|
A|----------|--------77|-----------|--------77|
E|----------|----------|-----------|----------|

G|----------|----------|-7777-7777-|----------|
D|-7777-7777|-6666-66--|-----------|-6666-66--|
A|----------|--------77|-----------|--------77|
E|----------|----------|-----------|----------|

Verse
       I'm a realist       [I'm a romantic]    n' I'm an
G|------------------------|------------------------|
D|-7--7--77---7--7--77-66-|--------------------765-|
A|------------------------|------------------------|
E|------------------------|-2--2--22---2--2--2-----|

 Indecisive [an indecisive] Piece of sh*t
G|-------------------------|------------------------|
D|-------------------------|------------------------|
A|-------------------------|-7--7--77---7-9999-7777-|
E|-7--7--77---7--7--7-7-99-|------------------------|

       I'm a realist       [I'm a romantic]    n’ I’m an
G|------------------------|------------------------|
D|-7--7--77---7--7--77-66-|--------------------765-|
A|------------------------|------------------------|
E|------------------------|-2--2--22---2--2--2-----|

 Indecisive [I am an indecisive] N that's about it
G|-------------------------|------------------------|
D|-------------------------|------------------------|
A|-------------------------|-7--7--77---7-9999-7777-|
E|-7--7--77---7--7--7-7-99-|------------------------|

Chorus

G|----------|----------|-7777-7777|----------|
D|-7777-7777|-6666-66--|----------|-6666-66--|
A|----------|--------77|----------|--------77|
E|----------|----------|----------|----------|


G|----------|----------|-7777-7777|----------|
D|-7777-7777|-6666-66--|----------|-6666-66--|
A|----------|--------77|----------|--------77|
E|----------|----------|----------|----------|

Break

G|----------|
D|----------|
A|----------|
E|-5--------|


Verse
       I'm a realist       [I'm a romantic]    n’ I’m an
G|------------------------|------------------------|
D|-7--7--77---7--7--77-66-|--------------------765-|
A|------------------------|------------------------|
E|------------------------|-2--2--22---2--2--2-----|

 Indecisive [an indecisive] Piece of sh*t
G|-------------------------|------------------------|
D|-------------------------|------------------------|
A|-------------------------|-7--7--77---7-9999-7777-|
E|-7--7--77---7--7--7-7-99-|------------------------|

       I admit it       [I'm up 2 my old tricks] n' did u
G|------------------------|------------------------|
D|-7--7--77---7--7--77-66-|--------------------765-|
A|------------------------|------------------------|
E|------------------------|-2--2--22---2--2--2-----|

 See her eyes [no I tried] She looked surprised
G|-------------------------|------------------------|
D|-------------------------|------------------------|
A|-------------------------|-7--7--77---7-9999-7777-|
E|-7--7--77---7--7--7-7-99-|------------------------|

Chorus

G|----------|----------|-7777-7777|----------|
D|-7777-7777|-6666-66--|----------|-6666-66--|
A|----------|--------77|----------|--------77|
E|----------|----------|----------|----------|


G|----------|----------|-7777-7777|----------|
D|-7777-7777|-6666-66--|----------|-6666-66--|
A|----------|--------77|----------|--------77|
E|----------|----------|----------|----------|

G|----------|----------|-7777-7777|----------|
D|-7777-7777|-6666-66--|----------|-6666-66--|
A|----------|--------77|----------|--------77|
E|----------|----------|----------|----------|


G|----------|----------|-7777-7777|----------|
D|-7777-7777|-6666-66--|----------|-6666-66--|
A|----------|--------77|----------|--------77|
E|----------|----------|----------|----------|

Bridge

G|---------------------|---------------------|
D|---------------------|---------------------|
A|---------------------|-4444-4444-4444-4444-|
E|-5555-5555-5555-5555-|---------------------|

G|---------------------|---------------------|
D|---------------------|---------------------|
A|---------------------|-7-7-77--7-7-77777---|
E|-7777-7777-7777-7777-|---------------------|

G|---------------------|---------------------|
D|---------------------|---------------------|
A|---------------------|-4444-4444-4444-4444-|
E|-5555-5555-5555-5555-|---------------------|

G|---------------------|---------------------|
D|---------------------|---------------------|
A|---------------------|-7-7-77--7-7-77777---|
E|-7777-7777-7777-7777-|---------------------|

Outro

G|----------|----------|-7777-7777|----------|
D|-7777-7777|-6666-66--|----------|-6666-66--|
A|----------|--------77|----------|--------77|
E|----------|----------|----------|----------|


G|----------|----------|-7777-7777|----------|
D|-7777-7777|-6666-66--|----------|-6666-66--|
A|----------|--------77|----------|--------77|
E|----------|----------|----------|----------|

G|----------|----------|-7777-7777|----------|
D|-7777-7777|-6666-66--|----------|-6666-66--|
A|----------|--------77|----------|--------77|
E|----------|----------|----------|----------|


G|----------|----------|-7777-7777|----------|
D|-7777-7777|-6666-66--|----------|-6666-66--|
A|----------|--------77|----------|--------77|
E|----------|----------|----------|----------|

End

G|----------|
D|----------|
A|----------|
E|-5--------|


Lyrics


I'm a realist
I'm a romantic
I'm an indecisive piece of sh*t

I'm a realist
I'm a romantic
I am indecisive and that's about it

And you dream that's the same thing
That’s the same life you lead
I don't agree and so you drink
Don’t wanna think
That’s cos your mind is already made up

I'm a realist
I'm a romantic
I'm an indecisive piece of sh*t

I admit it
I'm up to my old tricks
Did you see her eyes (oh no I tried)
She looked surprised

And you dream that's the same thing
That’s the same life you lead
I don't agree and so you drink
Don’t wanna think
That’s cos your mind is already made up

How you dream that's the same thing
That’s the same life you lead
I don't agree and so you
Drink don't wanna think
That’s cos your mind is already made up

No

I know that it's only a matter of time
Before you know it I'll be leaving town
See it in my eyes
No one will do
No one will ever do

I know that it's only a matter of time
Before you know it I'll be leaving town
Seen it in your eyes
No one will ever do
No one will ever do for you

If there's anything wrong with it then it's because I’m a guitar player, slightly tone 
and only have a live recording to listen to. But I did it because there wasn't a tab for 
song so I thought a bad tab is better then no tab at all.
            
Submit corrections

↑ Back to top | Tablatures and chords for acoustic guitar and electric guitar, ukulele, drums are parodies/interpretations of the original songs. You may use it for private study, scholarship, research or language learning purposes only