Home » T » The Cribs »

The Cribs - I'm A Realist Tabs

Artists:  A B C D E F G H I J K L M N O P Q R S T U V W X Y Z # 

I'm A Realist Tabs

(ver. 2) Click to play this song!
The Cribs
----------------------------------------------------------------------------
----------------------------------------------------------------------------

Tuning:EADGBe

Intro/Chorus

e|----------------2-2-------0-0-0-----2-2-2-----------------2-0--------------|
B|---------2-2-2------2-2-2-------2-2-------2-2-2----------------------------|
G|--2-2-2-----------------------------------------2-2-1-1-1--1---------------|
D|---------------------------------------------------------------------------|
A|---------------------------------------------------------------------------|
E|---------------------------------------------------------------------------|

Verses
e|---------------------------------------------------------------------------|
B|------------2--2------2--2-------------------------2-2-3-3-2-2-3-3---------|
G|----1s4-2-4------4-2-4----2-2-2-1--1-2-2-2-1-1-0---------------------------|
D|------------------------------------------------4---------4-------4-4-4-2--|
A|---------------------------------------------------------------------------|
E|---------------------------------------------------------------------------|

e|--------------------------------------------------------------------------|
B|----0h2-2h3-7p5-5p3-------------------------------------------------------|
G|--------------------------------------------------------------------------|
D|---2---------------------repeated through verse---------------------------|
A|--------------------------------------------------------------------------|
E|--------------------------------------------------------------------------|


Bridge (strummed)
e|-A-5--C#m-4--Bm-7--E-7----------------------------------------------------|
B|---5------5-----7----9----------------------------------------------------|
G|---6------6-----9----9----------------------------------------------------|
D|---7------6-----9----9----------------------------------------------------|
A|---7------4-----7----7----------------------------------------------------|
E|---5------4-----7----7----------------------------------------------------|

| /  slide up
| \  slide down
| h  hammer-on
| p  pull-off
| ~  vibrato
| +  harmonic
| x  Mute note
===============================================================================
            
Submit corrections

↑ Back to top | Tablatures and chords for acoustic guitar and electric guitar, ukulele, drums are parodies/interpretations of the original songs. You may use it for private study, scholarship, research or language learning purposes only