Home » T » The Cribs »

The Cribs - Men's Needs Tabs

Artists:  A B C D E F G H I J K L M N O P Q R S T U V W X Y Z # 

Men's Needs Tabs

(ver. 1) Click to play this song!
The Cribs


Intro: 
e|-2-0-0-2-0-0-2-4----|      e|-2-0-0-2-0-0-2-4-----|
B|-----------------0--|      B|-----------------0-0-|
G|--------------------| X3   G|---------------------|
D|--------------------|      D|---------------------|
A|--------------------|      A|---------------------|
E|--------------------|      E|---------------------|

e|-2-0-0-2-0-0-2-4----|      e|-2-0-0-2-0-0-2-------|
B|-----------------0--|      B|---------------0-0-0-|
G|--------------------| X3   G|---------------------|
D|--------------------|      D|---------------------|
A|--------------------|      A|---------------------|
E|--------------------|      E|---------------------|

Verse:
e|-2-0-0-2-0-0-2-4----|      e|-2-0-0-2-0-0-2-4-----|
B|-----------------0--|      B|-----------------0-0-|
G|--------------------| X3   G|---------------------|
D|--------------------|      D|---------------------|
A|--------------------|      A|---------------------|
E|--------------------|      E|---------------------|

e|-2-0-0-2-0-0-2-4----|      e|-2-0-0-2-0-0-2-------|
B|-----------------0--|      B|---------------0-0-0-|
G|--------------------| X3   G|---------------------|
D|--------------------|      D|---------------------|
A|--------------------|      A|---------------------|
E|--------------------|      E|---------------------|

Chorus:
e|-2-0-0-2-0-0-2-4----| 
B|-----------------0--| 
G|--------------------| X2  
D|--------------------|     
A|--------------------|     
E|--------------------|                                Repeat This 3 Times

e|-555-444-000---------| e|-555-444-777777-000--|
B|-------------000000--| B|---------------------|
G|---------------------| G|---------------------|
D|---------------------| D|---------------------|
A|---------------------| A|---------------------|
E|---------------------| E|---------------------|

4th Time:
Chorus:
e|-2-0-0-2-0-0-2-4-0------4-2-4-0-| 
B|-------------------0------------| 
G|--------------------------------|   
D|--------------------------------|     
A|--------------------------------|     
E|--------------------------------|

Solo:
e|-7xx-4xx-000000000--|     e|-7xx-4xx------------| 
B|--------------------|     B|-7xx-5xx-444444444--|
G|--------------------| X2  G|--------------------| X2 
D|--------------------|     D|--------------------|   
A|--------------------|     A|--------------------| 
E|--------------------|     E|--------------------|


e|--------------------|     e|--------------------| 
B|-9xx-10xx-12-000000-|     B|-9-9-9-9-7-7-7-0----|
G|--------------------| X3  G|-9-9-9-9-9-9-9-9----| 
D|--------------------|     D|--------------------|   
A|--------------------|     A|--------------------| 
E|--------------------|     E|--------------------|


e|-7xx-4xx-000000000--|     e|-7xx-4xx------------| 
B|--------------------|     B|-7xx-5xx-444444444--|
G|--------------------| X2  G|--------------------| X2 
D|--------------------|     D|--------------------|   
A|--------------------|     A|--------------------| 
E|--------------------|     E|--------------------|


e|--------------------|     
B|-9xx-10xx-12-000000-|     
G|--------------------| X2  
D|--------------------|      
A|--------------------|     
E|--------------------|     

e|-------------------------------------|   
B|-9-9----9-9-9---10-10-10----12-12-12-| 
G|-9-9----9-9-9---9--9--9-----9--9--9--|  
D|-------------------------------------|   
A|-------------------------------------|      
E|-------------------------------------| 


Outro:
Just gradually slide up the fretboard with dead strings until the end of the song    


Order:

Intro
Verse
Chorus
Verse
Chorus
Solo
Verse
Chorus
Outro


| /  slide up
| \  slide down
| h  hammer-on
| p  pull-off
| ~  vibrato
| +  harmonic
| x  Mute note
            
Submit corrections

↑ Back to top | Tablatures and chords for acoustic guitar and electric guitar, ukulele, drums are parodies/interpretations of the original songs. You may use it for private study, scholarship, research or language learning purposes only