Home » T » The Cribs »

The Cribs - Your Gonna Loose Us Tabs

Artists:  A B C D E F G H I J K L M N O P Q R S T U V W X Y Z # 

Your Gonna Loose Us Tabs

(ver. 1) Click to play this song!
The Cribs
quality song that was originally a hey scenesters vinyl b side

anyway

intro (top riff ryan!)

e-14-15-16-15--14-14-14-14-14-|
b-14-14-14-14--16-16-16-16-16-|
g-14-14-14-14--14-14-14-14-14-|
d-----------------------------|
a-----------------------------|
E-----------------------------|


Verse "by the time they had lost him...." is just the two chords below

  B    F#
e-4-----2--|
b-4-----2--|
g-4-----2--|
d-4-----2--|
a----------|
E----------|

"do ou love me?....NO!" etc is this chord thrashed out

e-x
b-9
g-8
d-9
a-x
E-x

 Bridge-the bit for the " lets be avvvin you out" etc is the most debatable part of the tab

e-(16x4)-16-17-17--19-19-16---16-16-17-17--19-19-16----|
b-(16x4)-16-16-16--16-16-16---16-16-16-16--16-16-16----|
g------------------------------------------------------|
d------------------------------------------------------|
a------------------------------------------------------|
E------------------------------------------------------|

Chorus-"when im drunk i can be an arsehole!......"

e-14-15-16-15--14-14-14-14-14-|
b-14-14-14-14--16-16-16-16-16-|
g-14-14-14-14--14-14-14-14-14-| x 4
d-----------------------------|
a-----------------------------|
E-----------------------------|

After this the verse comes in again, you can play the F# and B chords as before or play 
faint guitar line over the chords

for the F#

e-7-9-7-----| x2
b---------9-|
g-----------|
d-----------|
a-----------|
E-----------|
for the B

e-2-4-2-----| x2
b--------2--|
g-----------|
d-----------|
a-----------|
E-----------|


"do you love me? NO!..." again is this chord

e-x
b-9
g-8
d-9
a-x
E-x


after that its to the bridge again

e-(16x4)-16-17-17--19-19-16---16-16-17-17--19-19-16----|
b-(16x4)-16-16-16--16-16-16---16-16-16-16--16-16-16----|
g------------------------------------------------------|
d------------------------------------------------------|
a------------------------------------------------------|
E------------------------------------------------------|


Chorus AGAIN-"when im drunk i can be an arsehole!......"

e-14-15-16-15--14-14-14-14-14-|
b-14-14-14-14--16-16-16-16-16-|
g-14-14-14-14--14-14-14-14-14-| x 4
d-----------------------------|
a-----------------------------|
E-----------------------------|


solo (rough ryan guide)

e----------7--9b-9b-9b-9b-7---------------|
b------7--9------------------7*---8*---9*-|
g-7--9------------------------------------|
d-----------------------------------------| x2
a-----------------------------------------|
E-----------------------------------------|
(* is fast picking)

then into this chord again

e-x
b-9
g-8
d-9
a-x
E-x


after that ithe chord its to the bridge again

e-(16x4)-16-17-17--19-19-16---16-16-17-17--19-19-16----|
b-(16x4)-16-16-16--16-16-16---16-16-16-16--16-16-16----|
g------------------------------------------------------|
d------------------------------------------------------|
a------------------------------------------------------|
E------------------------------------------------------|


Chorus AGAIN-"when im drunk i can be an arsehole!......"

e-14-15-16-15--14-14-14-14-14-|
b-14-14-14-14--16-16-16-16-16-|
g-14-14-14-14--14-14-14-14-14-| x 4
d-----------------------------|
a-----------------------------|
E-----------------------------|


then finish on the chord

e-x
b-9
g-8
d-9
a-x
E-x



rakes/cribs/boysintheband forums
            
Submit corrections

↑ Back to top | Tablatures and chords for acoustic guitar and electric guitar, ukulele, drums are parodies/interpretations of the original songs. You may use it for private study, scholarship, research or language learning purposes only