» » »

Neck Deep - Lime St Tabs

Artists:  A B C D E F G H I J K L M N O P Q R S T U V W X Y Z # 

Lime St Tabs

(ver. 2) Click to play this song!
Neck Deep
 Rating:
4.4/5 (11 votes)

 Lime St lessons Tabs too difficult? Try these video lessons and learn fast
 
                [Opening] Guitar 1:
C|----------------------------|---------------------------|---------------------------|----------------------|
A|----------------------------|---------------------------|---------------------------|----------------------|
F|----------------------------|---------------------------|---------------------------|----------------------|
C|----------------------------|---------------------------|---------------------------|----------------------|
G|--5--5--5--5/9--9--9--9--9--|-5--5--5--5/9--9--9--9--9--|-5--5--5--5/9--9--9--9--9--|-5--5--5/9--9--9/10\9-|
C|----------------------------|---------------------------|---------------------------|----------------------|

[Opening] Guitar 2:
D|-------------------------|-------------------------|------------------------|------------------------|
A|-------------------------|-------------------------|------------------------|------------------------|
F|-------------------------|-------------------------|------------------------|------------------------|
C|--0--0--0--0--0-0-0-0-0--|--0--0--0--0--0-0-0-0-0--|-7--7--7--7--7-7-7-7-7--|--5--5--5--5--5-5-5-5-5-|
G|--0--0--0--0--0-0-0-0-0--|--0--0--0--0--0-0-0-0-0--|-7--7--7--7--7-7-7-7-7--|--5--5--5--5--5-5-5-5-5-|
C|--0--0--0--0--0-0-0-0-0--|--0--0--0--0--0-0-0-0-0--|-7--7--7--7--7-7-7-7-7--|--5--5--5--5--5-5-5-5-5-|

[Intro] Guitar 1:
D|--------------------------------|--------------------------------|--------------------------------|
A|--------------------------------|--------------------------------|--------------------------------|
F|--14--14--14--14\11-11-11-11-11-|--14--14--14--14\11-11-11-11-11-|--14--14--14--14\11-11-11-11-11-|
C|---x---x---x---x-x--x--x--x--x--|---x---x---x---x-x--x--x--x--x--|---x---x---x---x-x--x--x--x--x--|
G|--12--12--12--12\9--9--9--9--9--|--12--12--12--12\9--9--9--9--9--|--12--12--12--12\9--9--9--9--9--|
C|--------------------------------|--------------------------------|--------------------------------|

D|------------------------------|
A|------------------------------|
F|--12--12--12--12\11-11-11-11--|
C|---x---x---x---x-x--x--x--x---|
G|--10--10--10--10\9--9--9--9---|
C|------------------------------|

D|--------------------------------|--------------------------------|--------------------------------|
A|--------------------------------|--------------------------------|--------------------------------|
F|--14--14--14--14\11-11-11-11-11-|--14--14--14--14\11-11-11-11-11-|--14--14--14--14\11-11-11-11-11-|
C|---x---x---x---x-x--x--x--x--x--|---x---x---x---x-x--x--x--x--x--|---x---x---x---x-x--x--x--x--x--|
G|--12--12--12--12\9--9--9--9--9--|--12--12--12--12\9--9--9--9--9--|--12--12--12--12\9--9--9--9--9--|
C|--------------------------------|--------------------------------|--------------------------------|

D|--------------------|
A|--------------------|
F|--12--12--12--12\7--|
C|---x---x---x---x-x--|
G|--10--10--10--10\5--|
C|--------------------|

[Intro] Guitar 2: (x2)
C|----------------------------|---------------------------|---------------------------|----------------------|
A|----------------------------|---------------------------|---------------------------|----------------------|
F|--7--7--7--7/11-11-11-11-11-|-7--7--7--7/11-11-11-11-11-|-7--7--7--7\9--9--9--9--9--|-7--7--7--7--7--7--7--|
C|--x--x--x--x-x--x--x--x--x--|-x--x--x--x-x--x--x--x--x--|-x--x--x--x-x--x--x--x--x--|-x--x--x--x--x--x--x--|
G|--5--5--5--5/9--9--9--9--9--|-5--5--5--5/9--9--9--9--9--|-5--5--5--5/7--7--7--7--7--|-5--5--5--5--5--5--5--|
C|----------------------------|---------------------------|---------------------------|----------------------|

[Intro] Guitar 3: (x2)
D|-------------------------|-------------------------|------------------------|------------------------|
A|-------------------------|-------------------------|------------------------|------------------------|
F|-------------------------|-------------------------|------------------------|------------------------|
C|--0--0--0--0--0-0-0-0-0--|--0--0--0--0--0-0-0-0-0--|-7--7--7--7--7-7-7-7-7--|--5--5--5--5--5-5-5-5-5-|
G|--0--0--0--0--0-0-0-0-0--|--0--0--0--0--0-0-0-0-0--|-7--7--7--7--7-7-7-7-7--|--5--5--5--5--5-5-5-5-5-|
C|--0--0--0--0--0-0-0-0-0--|--0--0--0--0--0-0-0-0-0--|-7--7--7--7--7-7-7-7-7--|--5--5--5--5--5-5-5-5-5-|

[Verse] Guitar 2 (x2)
"It's been a few days since I saw you last"
D|-----------------------------|-----------------------------|-----------------------------|--------------|
A|-----------------------------|-----------------------------|-----------------------------|--------------|
F|-----------------------------|-----------------------------|-----------------------------|--------------|
C|--0--0--0-0-0-0--0--0--0--0--|--0--0--0-0-0-0--0--0--0--0--|--4--4--4-4-4-4--4--4--4--4--|--5--4--5--7--|
G|--0--0--0-0-0-0--0--0--0--0--|--0--0--0-0-0-0--0--0--0--0--|--4--4--4-4-4-4--4--4--4--4--|--5--4--5--7--|
C|--0--0--0-0-0-0--0--0--0--0--|--0--0--0-0-0-0--0--0--0--0--|--4--4--4-4-4-4--4--4--4--4--|--5--4--5--7--|

[PreChorus] Guitar 1
"Just Need Some Time And Space..."
D|--------------------|--------------------|------------------------------|--------------------|
A|--7-----7--8--7-----|--7-----7--8--7-----|--10-----10-----10-----10-----|--8-----8-----8-----|
F|-----7-----------7--|-----7-----------7--|------7------7------7------7--|-----7-----7-----7--|
C|--------------------|--------------------|------------------------------|--------------------|
G|--------------------|--------------------|------------------------------|--------------------|
C|--------------------|--------------------|------------------------------|--------------------|

D|--------------------|--------------------|----------------------|
A|--7-----7--8--7-----|--7-----7--8--7-----|--10--7--5----5h7-----|
F|-----7-----------7--|-----7-----------7--|-------------------7--|
C|--------------------|--------------------|----------------------|
G|--------------------|--------------------|----------------------|
C|--------------------|--------------------|----------------------|

[PreChorus] Guitar 2
"Just Need Some Time And Space..."
D|----------------------------------|------------------------------------|
A|----------------------------------|------------------------------------|
F|----------------------------------|------------------------------------|
C|--4--4-4-4-4-4-4-4-4-4-4-4-4-4-4--|--5--5-5-5-5-5-5-5-5-5-5-5-5-5-5-5--|
G|--4--4-4-4-4-4-4-4-4-4-4-4-4-4-4--|--5--5-5-5-5-5-5-5-5-5-5-5-5-5-5-5--|
C|--4--4-4-4-4-4-4-4-4-4-4-4-4-4-4--|--5--5-5-5-5-5-5-5-5-5-5-5-5-5-5-5--|

D|------------------------------|------------------------------------|
A|------------------------------|------------------------------------|
F|------------------------------|------------------------------------|
C|--9-9-9--9-9-9--7-7-7--7-7-7--|--5--5-5-5-5-5-5-5-5-5-5-5-5-5-5-5--|
G|--9-9-9--9-9-9--7-7-7--7-7-7--|--5--5-5-5-5-5-5-5-5-5-5-5-5-5-5-5--|
C|--9-9-9--9-9-9--7-7-7--7-7-7--|--5--5-5-5-5-5-5-5-5-5-5-5-5-5-5-5--|

D|----------------------------------|------------------------------------|
A|----------------------------------|------------------------------------|
F|----------------------------------|------------------------------------|
C|--4--4-4-4-4-4-4-4-4-4-4-4-4-4-4--|--5--5-5-5-5-5-5-5-5-5-5-5-5-5-5-5--|
G|--4--4-4-4-4-4-4-4-4-4-4-4-4-4-4--|--5--5-5-5-5-5-5-5-5-5-5-5-5-5-5-5--|
C|--4--4-4-4-4-4-4-4-4-4-4-4-4-4-4--|--5--5-5-5-5-5-5-5-5-5-5-5-5-5-5-5--|

D|------------------------------|-----|
A|------------------------------|-----|
F|------------------------------|-----|
C|--9-9-9--9-9-9--7-7-7--7-7-7--|--5--|
G|--9-9-9--9-9-9--7-7-7--7-7-7--|--5--|
C|--9-9-9--9-9-9--7-7-7--7-7-7--|--5--|


[Chorus] Guitar 1:
"Is it too late to say?"
D|---------|
A|--10-----|
F|------7--|
C|---------|
G|---------|
C|---------| (x16)

D|---------------------------------------------------------------------------|
A|--10-----10-----10-----10---7-----7-----7-----7-----5-----5-----5--7--8----|
F|------7------7------7----------7-----7-----7-----7-----7-----7-----7--7----|
C|---------------------------------------------------------------------------|
G|---------------------------------------------------------------------------|
C|---------------------------------------------------------------------------|

[Chorus] Guitar 2:
"Is it too late to say?"
D|--------------------------|--------------------------|--------------------------|--------------------------|
A|--------------------------|--------------------------|--------------------------|--------------------------|
F|--------------------------|--------------------------|--------------------------|--------------------------|
C|--0--0--0--0--0--4--4--5--|--5--5--5--5--5--5--5--5--|--0--0--0--0--0--4--7--5--|--5--5--5--5--5--5--5--5--|
G|--0--0--0--0--0--4--4--5--|--5--5--5--5--5--5--5--5--|--0--0--0--0--0--4--7--5--|--5--5--5--5--5--5--5--5--|
C|--0--0--0--0--0--4--4--5--|--5--5--5--5--5--5--5--5--|--0--0--0--0--0--4--7--5--|--5--5--5--5--5--5--5--5--|

D|----------------------------------------------|-----------------------|
A|----------------------------------------------|-----------------------|
F|--4--4--4--4--4-------------------------------|-----------------------|
C|--4--4--4--4--4--4----5--5--5--5--5--5--5--5--|--2--2--2--2--2--4--5--|
G|--2--2--2--2--2--4----5--5--5--5--5--5--5--5--|--2--2--2--2--2--4--5--|
C|-----------------4----5--5--5--5--5--5--5--5--|--2--2--2--2--2--4--5--|

[Main Riff] Guitar 1:
D|-------|--------------------------------|--------------------------------|--------------------------------|
A|-------|--------------------------------|--------------------------------|--------------------------------|
F|-11-9--|--14--14--14--14\11-11-11-11-11-|--14--14--14--14\11-11-11-11-11-|--14--14--14--14\11-11-11-11-11-|
C|--x-x--|---x---x---x---x-x--x--x--x--x--|---x---x---x---x-x--x--x--x--x--|---x---x---x---x-x--x--x--x--x--|
G|--9\7--|--12--12--12--12\9--9--9--9--9--|--12--12--12--12\9--9--9--9--9--|--12--12--12--12\9--9--9--9--9--|
C|-------|--------------------------------|--------------------------------|--------------------------------|

D|------------------------------|
A|------------------------------|
F|--12--12--12--12\11-11-11-11--|
C|---x---x---x---x-x--x--x--x---|
G|--10--10--10--10\9--9--9--9---|
C|------------------------------|

D|--------------------------------|--------------------------------|--------------------------------|
A|--------------------------------|--------------------------------|--------------------------------|
F|--14--14--14--14\11-11-11-11-11-|--14--14--14--14\11-11-11-11-11-|--14--14--14--14\11-11-11-11-11-|
C|---x---x---x---x-x--x--x--x--x--|---x---x---x---x-x--x--x--x--x--|---x---x---x---x-x--x--x--x--x--|
G|--12--12--12--12\9--9--9--9--9--|--12--12--12--12\9--9--9--9--9--|--12--12--12--12\9--9--9--9--9--|
C|--------------------------------|--------------------------------|--------------------------------|

D|--------------------|
A|--------------------|
F|--12--12--12--12\7--|
C|---x---x---x---x-x--|
G|--10--10--10--10\5--|
C|--------------------|

[Main Riff] Guitar 2: (x2)
C|------------------|------------------|----------------------------|
A|----------10------|----------10------|----------10----------------|
F|--7/9/11------11--|--7/9/11------11--|--7/9/11------9\7/9h11p9\7--|
C|------------------|------------------|----------------------------|
G|------------------|------------------|----------------------------|
C|------------------|------------------|----------------------------|

[Main Riff] Guitar 3: (x2)
D|-------------------------|-------------------------|------------------------|------------------------|
A|-------------------------|-------------------------|------------------------|------------------------|
F|-------------------------|-------------------------|------------------------|------------------------|
C|--0--0--0--0--0-0-0-0-0--|--0--0--0--0--0-0-0-0-0--|-7--7--7--7--7-7-7-7-7--|--5--5--5--5--5-5-5-5-5-|
G|--0--0--0--0--0-0-0-0-0--|--0--0--0--0--0-0-0-0-0--|-7--7--7--7--7-7-7-7-7--|--5--5--5--5--5-5-5-5-5-|
C|--0--0--0--0--0-0-0-0-0--|--0--0--0--0--0-0-0-0-0--|-7--7--7--7--7-7-7-7-7--|--5--5--5--5--5-5-5-5-5-|

[Verse] Guitar 2 (x2)
"I Haven't Seen You Smile This Whole Time"
D|-----------------------------|-----------------------------|-----------------------------|--------------|
A|-----------------------------|-----------------------------|-----------------------------|--------------|
F|-----------------------------|-----------------------------|-----------------------------|--------------|
C|--0--0--0-0-0-0--0--0--0--0--|--0--0--0-0-0-0--0--0--0--0--|--4--4--4-4-4-4--4--4--4--4--|--5--4--5--7--|
G|--0--0--0-0-0-0--0--0--0--0--|--0--0--0-0-0-0--0--0--0--0--|--4--4--4-4-4-4--4--4--4--4--|--5--4--5--7--|
C|--0--0--0-0-0-0--0--0--0--0--|--0--0--0-0-0-0--0--0--0--0--|--4--4--4-4-4-4--4--4--4--4--|--5--4--5--7--|

[PreChorus] Guitar 2
"You asked me where we could meet..."
D|----------------------------------|------------------------------------|
A|----------------------------------|------------------------------------|
F|----------------------------------|------------------------------------|
C|--4--4-4-4-4-4-4-4-4-4-4-4-4-4-4--|--5--5-5-5-5-5-5-5-5-5-5-5-5-5-5-5--|
G|--4--4-4-4-4-4-4-4-4-4-4-4-4-4-4--|--5--5-5-5-5-5-5-5-5-5-5-5-5-5-5-5--|
C|--4--4-4-4-4-4-4-4-4-4-4-4-4-4-4--|--5--5-5-5-5-5-5-5-5-5-5-5-5-5-5-5--|

D|------------------------------|------------------------------------|
A|------------------------------|------------------------------------|
F|------------------------------|------------------------------------|
C|--9-9-9--9-9-9--7-7-7--7-7-7--|--5--5-5-5-5-5-5-5-5-5-5-5-5-5-5-5--|
G|--9-9-9--9-9-9--7-7-7--7-7-7--|--5--5-5-5-5-5-5-5-5-5-5-5-5-5-5-5--|
C|--9-9-9--9-9-9--7-7-7--7-7-7--|--5--5-5-5-5-5-5-5-5-5-5-5-5-5-5-5--|

D|----------------------------------|------------------------------------|
A|----------------------------------|------------------------------------|
F|----------------------------------|------------------------------------|
C|--4--4-4-4-4-4-4-4-4-4-4-4-4-4-4--|--5--5-5-5-5-5-5-5-5-5-5-5-5-5-5-5--|
G|--4--4-4-4-4-4-4-4-4-4-4-4-4-4-4--|--5--5-5-5-5-5-5-5-5-5-5-5-5-5-5-5--|
C|--4--4-4-4-4-4-4-4-4-4-4-4-4-4-4--|--5--5-5-5-5-5-5-5-5-5-5-5-5-5-5-5--|

D|------------------------------|-----|
A|------------------------------|-----|
F|------------------------------|-----|
C|--9-9-9--9-9-9--7-7-7--7-7-7--|--5--|
G|--9-9-9--9-9-9--7-7-7--7-7-7--|--5--|
C|--9-9-9--9-9-9--7-7-7--7-7-7--|--5--|

[PreChorus] Guitar 1
"A moment I'll always keep..."
D|-------------------|
A|-------------------|
F|-------------------|
C|--4--0---7--2/4p0--|
G|-------------------|
C|-------------------|(x4)

[Chorus] Guitar 1: (x2)
"Is it too late to say?"
D|---------|
A|--10-----|
F|------7--|
C|---------|
G|---------|
C|---------| (x16)

D|---------------------------------------------------------------------------|
A|--10-----10-----10-----10---7-----7-----7-----7-----5-----5-----5--7--8----|
F|------7------7------7----------7-----7-----7-----7-----7-----7-----7--7----|
C|---------------------------------------------------------------------------|
G|---------------------------------------------------------------------------|
C|---------------------------------------------------------------------------|

[Chorus] Guitar 2: (x2)
"Is it too late to say?"
D|--------------------------|--------------------------|--------------------------|--------------------------|
A|--------------------------|--------------------------|--------------------------|--------------------------|
F|--------------------------|--------------------------|--------------------------|--------------------------|
C|--0--0--0--0--0--4--4--5--|--5--5--5--5--5--5--5--5--|--0--0--0--0--0--4--7--5--|--5--5--5--5--5--5--5--5--|
G|--0--0--0--0--0--4--4--5--|--5--5--5--5--5--5--5--5--|--0--0--0--0--0--4--7--5--|--5--5--5--5--5--5--5--5--|
C|--0--0--0--0--0--4--4--5--|--5--5--5--5--5--5--5--5--|--0--0--0--0--0--4--7--5--|--5--5--5--5--5--5--5--5--|

D|----------------------------------------------|-----------------------|
A|----------------------------------------------|-----------------------|
F|--4--4--4--4--4-------------------------------|-----------------------|
C|--4--4--4--4--4--4----5--5--5--5--5--5--5--5--|--2--2--2--2--2--4--5--|
G|--2--2--2--2--2--4----5--5--5--5--5--5--5--5--|--2--2--2--2--2--4--5--|
C|-----------------4----5--5--5--5--5--5--5--5--|--2--2--2--2--2--4--5--|

[Chorus] Guitar 3: (x2)
"...too late to say?"
D|----------------------------|
A|----------------------------|
F|----------------------------|
C|-----------------------7\4--|
G|--5/7/9/10\9\7\5--7\5-------|
C|----------------------------|

D|-------------------------------------|
A|-------------------------------------|
F|-------------------------------------|
C|----------------------7-7-7-7-7-7-7--|
G|--7--7--7--7--7/9\5------------------|
C|-------------------------------------|

[Bridge] Guitar 1:
D|---------|
A|--10-----|
F|------7--|
C|---------|
G|---------|
C|---------|(x32)

[Bridge] Guitar 2:
D|-------------|-------------|-------------|-------------|
A|-------------|-------------|-------------|-------------|
F|-------------|-------------|-------------|-------------|
C|--0----4--5--|--0----7--5--|--0----4--5--|--2----4--5--|
G|--0----4--5--|--0----7--5--|--0----4--5--|--2----4--5--|
C|--0----4--5--|--0----7--5--|--0----4--5--|--2----4--5--|

[Bridge] Guitar 3:
D|------9h10------12p10------10--|
A|--10--------10---------10------|
F|-------------------------------|
C|-------------------------------|
G|-------------------------------|
C|-------------------------------|(x3)

[Outro] Guitar 1:
"Is it too late to say?"
D|---------------------------------------------------------|---------------|
A|---------------------------------------------------------|---------------|
F|--14--14--14--14--14--14--14-11-11-11-11-11-11-11-11-11--|--9\7----14\11-|
C|---x---x---x---x---x---x---x--x--x--x--x--x--x--x--x--x--|--x-x-----x-x--|
G|--12--12--12--12--12--10--10--9--9--9--9--9--9--9--9--9--|--7\5----12\9--|
C|---------------------------------------------------------|---------------|

D|---------------------------------------------------------|----------------|
A|---------------------------------------------------------|----------------|
F|--14--14--14--14--14--14--14-11-11-11-11-11-11-11-11-11--|--9--9----11-7--|
C|---x---x---x---x---x---x---x--x--x--x--x--x--x--x--x--x--|--x--x----x--x--|
G|--12--12--12--12--12--10--10--9--9--9--9--9--9--9--9--9--|--7--7----9--5--|
C|---------------------------------------------------------|----------------|

[Outro] Guitar 2:
"Is it too late to say?"
D|--------------------------|--------------------------|
A|--------------------------|--------------------------|
F|--------------------------|--------------------------|
C|--0--0--0--0--0--4--4--5--|--5--5--5--5--5--5--5--5--|
G|--0--0--0--0--0--4--4--5--|--5--5--5--5--5--5--5--5--|
C|--0--0--0--0--0--4--4--5--|--5--5--5--5--5--5--5--5--|(x3)

D|--------------------------|-----|
A|--------------------------|-----|
F|--------------------------|-----|
C|--2--2--2--2--2--4--4--5--|--0--|
G|--2--2--2--2--2--4--4--5--|--0--|
C|--2--2--2--2--2--4--4--5--|--0--|

[Bridge] Guitar 3:
"Is it too late to say?"
D|------9h10------12p10------10--|
A|--10--------10---------10------|
F|-------------------------------|
C|-------------------------------|
G|-------------------------------|
C|-------------------------------|(x4)

[End On] Guitar 3:
"Is it too late to say?"
D|------9h10------12p10------10--|
A|--10--------10---------10------|
F|-------------------------------|
C|-------------------------------|
G|-------------------------------|
C|-------------------------------|            
Submit corrections


        Lime St lessons Hard to play? Try these video lessons and learn fast Lime St lessons
        
↑ Back to top | Tablatures and chords for acoustic guitar and electric guitar, ukulele, drums are parodies/interpretations of the original songs. You may use it for private study, scholarship, research or language learning purposes only