» » »

Neck Deep - Gold Steps Bass

Artists:  A B C D E F G H I J K L M N O P Q R S T U V W X Y Z # 

Gold Steps Bass

(ver. 1) Click to play this song!
Neck Deep
 Rating:
3.1/5 (20 votes)

 Gold Steps  lessons Tabs too difficult? Try these video lessons and learn fast
 
                
Main Riff x 2
F|-----------------------------------------------------------------------------------------------------|
C|-----------------------------------------------------------------------------------------------------|
G|-----------------------------------------------------------------------------------------------------| 
C|-9----\5-----0-5-4-5----0-5-4-5----0-5-4-5--5-7-7-7-9----\5----0-5-4-5----0-5-4-5----0-5-4-5--5-0----|

Verse I x 2
F|-----------------------------------------------------------------|
C|-----------------------------------------------------------------|
G|-----------------------------------------------------------------|
C|-0-0-0-0-0-0-0-0-0-0-0-0-0-0-0-0-4-4-4-4-4-4-4-4-5-5-5-5-5-5-5-5-|

F|-----------------------------------------------------------------|
C|-----------------------------------------------------------------|
G|-2-2-2-2-2-2-2-2-4-4-4-4-4-4-4-4---------------------------------|
C|---------------------------------5-5-5-5-5-5-5-5-5-5-5-5-5-5-5-5-|

Pre-Chorus I
F|----------------------------------------------------------|
C|----------------------------------------------------------|
G|----------------------------------------------------------|
C|-2--2--2-2-2-2--2-2--2-2-2-2--5--5--5-5-5-5--5-5--5-5-5-5-|

F|-----------------------------------------------------------|
C|-----------------------------------------------------------|
G|-5--5--5-5-5-5--5-5--5-5-5-5-------------------------------|
C|------------------------------7--7-7-7-7-7-7-7-7-7-7-7--7--|

Chorus 
F|-----------------------------------------------------------------|
C|-----------------------------------------------------------------|
G|-----------------------------------------------------------------|
C|-0-0-0-0-0-0-0-0-0-0-0-0-0-0-0-0-7-7-7-7-7-7-7-7-7-7-7-7-7-7-7-7-|

F|-----------------------------------------------------------------|
C|-----------------------------------------------------------------|
G|-----------------------------------------------------------------|
C|-2-2-2-2-2-2-2-2-2-2-2-2-2-2-2-2-5-5-5-5-5-5-5-5-5-5-5-5-5-5-5-5-|

Post-Chorus (main riff variation)
F|-----------------------------------------------------------------------------------------------------|
C|-----------------------------------------------------------------------------------------------------|
G|-----------------------------------------------------------------------------------------------------| 
C|------\5-----0-5-4-5----0-5-4-5----0-5-4-5--5-7-7-7-9----\5----0-5-4-5----0-5-4-5----0-5-4-5--5-0----|

F|-----------------------|
C|-----------------------|
G|-----------------------|
C|-0~--------12\~--------|

Verse II
F|-----------------------------------------------------------------|
C|-----------------------------------------------------------------|
G|-----------------------------------------------------------------|
C|-0-0-0-0-0-0-0-0-0-0-0-0-0-0-0-0-4-4-4-4-4-4-4-4-5-5-5-5-5-5-5-5-|

F|-----------------------------------------------------------------|
C|-----------------------------------------------------------------|
G|---------------------------------2-2-2-2-2-2-2-2-----------------|
C|-0-0-0-0-0-0-0-0-0-0-0-0-0-0-0-0-----------------5-5-5-5-5-5-5-5-|

F|-----------------------------------------------------------------|
C|-----------------------------------------------------------------|
G|-----------------------------------------------------------------|
C|-0-0-0-0-0-0-0-0-0-0-0-0-0-0-0-0-4-4-4-4-4-4-4-4-5-5-5-5-5-5-5-5-|

F|-----------------------------------------------------------------|
C|-----------------------------------------------------------------|
G|-2-2-2-2-2-2-2-2-4-4-4-4-4-4-4-4---------------------------------|
C|---------------------------------5-5-5-5-5-5-5-5-5-5-5-5-5-5-5-5-|

Pre-Chorus II
F|----------------------------------------------------------|
C|----------------------------------------------------------|
G|----------------------------------------------------------|
C|-2--2--2-2-2-2--2-2--2-2-2-2--5--5--5-5-5-5--5-5--5-5-5-5-|

F|-----------------------------------------------------------|
C|-----------------------------------------------------------|
G|-5--5--5-5-5-5--5-5--5-5-5-5-------------------------------|
C|------------------------------7--7-7-7-7-7-7-7-7-7-7-7-----|

Chorus (same as before)

Breakdown
F|-------------------------------------------------------------------------------------------------|
C|-------------------------------------------------------------------------------------------------|
G|-------------------------------------------------------------------------------------------------|
C|-0-0-0-0-0-0--0-0----0-0-0-0-0-0--0-0--0--0--0-0-5-5-5-5-5-5--5-5----5-5-5-5-5-5--5-5--5--5--5-5-|

F|-------------------------------------------------------------------------------------------------|
C|-------------------------------------------------------------------------------------------------|
G|-------------------------------------------------------------------------------------------------|
C|-9-9-9-9-9-9--9-9----7-7-7-7-7-7--7-7--7--7--7-7-5-5-5-5-5-5--5-5----5-5-5-5-5-5--5-7--7--7--7-7-|

Final Chorus (come in with the rest of the band)
F|-----------------------------------------------------------------|
C|-----------------------------------------------------------------|
G|-----------------------------------------------------------------|
C|-0-0-0-0-0-0-0-0-0-0-0-0-0-0-0-0-7-7-7-7-7-7-7-7-7-7-7-7-7-7-7-7-|

F|-----------------------------------------------------------------|
C|-----------------------------------------------------------------|
G|-----------------------------------------------------------------|
C|-2-2-2-2-2-2-2-2-2-2-2-2-2-2-2-2-5-5-5-5-5-5-5-5-5-5-5-5-5-5-5-5-|            
Submit corrections


        Gold Steps  lessons Hard to play? Try these video lessons and learn fast Gold Steps  lessons
        
↑ Back to top | Tablatures and chords for acoustic guitar and electric guitar, ukulele, drums are parodies/interpretations of the original songs. You may use it for private study, scholarship, research or language learning purposes only