» » »

Neck Deep - Rock Bottom Bass

Artists:  A B C D E F G H I J K L M N O P Q R S T U V W X Y Z # 

Rock Bottom Bass

(ver. 1) Click to play this song!
Neck Deep
 Rating:
3.2/5 (22 votes)

 Rock Bottom  lessons Tabs too difficult? Try these video lessons and learn fast
 
                Verse I/Bass Riff x 2 
F|---------------------------------|
C|-----7---4-------5---4-------4---|
G|-5-5---5---5-7-5---5---5-7-5---5-| x 2
C|---------------------------------|

F|-----------------------------------------------|
C|--------12----9----------10----9----------9----|
G|-/10-10----10---10-12-10----10---10-12-10---10-|
C|-----------------------------------------------|

F|----------------------------------------|
C|-------12----9----------9-9-9-9-7-7-7-7-|
G|-10-10----10---10-12-10-----------------|
C|----------------------------------------|

Pre-Chorus
F|------------------------------------------------------|
C|------4----4------5--5---------4----4----/12-14-12----|
G|-5------------------------5---------------------------|
C|------------------------------------------------------|

F|-------------------------------------|
C|------4----4------5--5--5------------|
G|-5-------------------------5~--------|
C|-------------------------------------|

Chorus
F|-----------------------------------------------------------------|
C|-----------------------------------------------------------------|
G|-2-2-2-2-2-2-2-2-2-2-2-2-2-2-2-2---------------------------------|
C|---------------------------------0-0-0-0-0-0-0-0-0-0-0-0-0-0-0-0-|

F|-----------------------------------------------------------------|
C|-----------------------------------------------------------------|
G|-----------------------------------------------------------------|
C|-7-7-7-7-7-7-7-7-7-7-7-7-7-7-7-7-5-5-5-5-5-5-5-5-5-5-5-5-5-5-5-5-|

F|-----------------------------------------------------------------|
C|-----------------------------------------------------------------|
G|-2-2-2-2-2-2-2-2-2-2-2-2-2-2-2-2---------------------------------|
C|---------------------------------0-0-0-0-0-0-0-0-0-0-0-0-0-0-0-0-|

F|-----------------------------------------------------------------|
C|-----------------------------------------------------------------|
G|-----------------------------------------------------------------|
C|-7-7-7-7-7-7-7-7-7-7-7-7-7-7-7-7-5--------5----5-----------------|

Bass Riff/Verse x 2

Pre-Chorus Variation x 2
F|------------------------------------------------------|
C|------4----4------5--5---------4----4----/12-14-12----|
G|-5------------------------5---------------------------| 
C|------------------------------------------------------|

F|--------------------------------------------------|
C|------4----4------5--5----------------------------|
G|-5------------------------5----5----5----5--5--5--| 
C|--------------------------------------------------|

Chorus 

Bridge (play the first line 4x)
F|------------------------------------------------------------------------------------------------------------|
C|--------------------------------------------4--5--4--2------------------------------------------------------|
G|-2-2x--------2-2x------------2-2x--------2--------------5-5x--------5-5x------------5-5x--------------------|
C|------------------------------------------------------------------------------------------------5--5--7--7--|

F|---------------------------------------------------------------------------|
C|---------------------------------------------------------------------------|
G|-2~------------------------------------------------------------------------|
C|---------------------------------------------------------------------------|

Final Chorus
F|-----------------------------------------------------------------|
C|-----------------------------------------------------------------|
G|-2-2-2-2-2-2-2-2-2-2-2-2-2-2-2-2-5-5-5-5-5-5-5-5-5-5-5-5-5-5-5-5-|
C|-----------------------------------------------------------------|

F|-----------------------------------------------------------------|
C|-----------------------------------------------------------------|
G|-----------------------------------------------------------------|
C|-7-7-7-7-7-7-7-7-7-7-7-7-7-7-7-7-5-5-5-5-5-5-5-5-5-5-5-5-5-5-5-5-|

F|-----------------------------------------------------------------|
C|-----------------------------------------------------------------|
G|-2-2-2-2-2-2-2-2-2-2-2-2-2-2-2-2---------------------------------|
C|---------------------------------0-0-0-0-0-0-0-0-0-0-0-0-0-0-0-0-|

F|-----------------------------------------------------------------|
C|-----------------------------------------------------------------|
G|-----------------------------------------------------------------|
C|-7-7-7-7-7-7-7-7-7-7-7-7-7-7-7-7-5-5-5-5-5-5-5-5-5-5-5-5-5-5-5-5-|

F|-----------------------------------------------------------------------------------|
C|-----------------------------------------------------------------------------------|
G|-2--2----2-2-2-2--2--2-2-2-2-5--5----5-5-5-5--5--5-5-5-5---------------------------|
C|---------------------------------------------------------7--7--7-7-7-7--7--7-7-7-7-|

F|--------------------------|
C|-5----4---------5--4------|
G|-----------5--------------|
C|--------------------------|

F|-----------------------------------------------------------------------------------|
C|-----------------------------------------------------------------------------------|
G|-2--2----2-2-2-2--2--2-2-2-2-5--5----5-5-5-5--5--5-5-5-5---------------------------|
C|---------------------------------------------------------7--7--7-7-7-7--7--7-7-7-7-|

F|--------------------------|
C|-5----4-------------------|
G|-----------5~-------------|
C|--------------------------|            
Submit corrections


        Rock Bottom  lessons Hard to play? Try these video lessons and learn fast Rock Bottom  lessons
        
↑ Back to top | Tablatures and chords for acoustic guitar and electric guitar, ukulele, drums are parodies/interpretations of the original songs. You may use it for private study, scholarship, research or language learning purposes only