» » »

Neck Deep - Kali Ma Bass

Artists:  A B C D E F G H I J K L M N O P Q R S T U V W X Y Z # 

Kali Ma Bass

(ver. 1) Click to play this song!
Neck Deep
 Rating:
2.6/5 (22 votes)

 Kali Ma  lessons Tabs too difficult? Try these video lessons and learn fast
 
                Tuning: Drop C

Chorus x 2
F|-------------------------------------------------------|
C|-------------------------------------------------------|
G|-------------------------------------------------------|
C|-1-1-1----1-1-1--1--1-1-1-1-6-6-6----6-6-6--6--6-6-6-6-|

F|--------------------------------------------------------|
C|--------------------------------------------------------|
G|--------------------------------------------------------|
C|-3-3-3----3-3-3--3--3-3-3-3-6--6--6--6--6/10----10\8----|

Verse I
F|-----------------------------------------------------------------------|
C|-----------------------------------------------------------------------|
G|-6~----------------3~----------------1~--------------------------------| x 2
C|------------------------------------------------------6~---------------|

F|-----------------------------------------------------------------|
C|-----------------------------------------------------------------|
G|---------------------------------6-6-6-6-6-6-6-6-6-6-6-6-6-6-6-6-| x 3
C|-4-4-4-4-4-4-4-4-6-6-6-6-6-6-6-6---------------------------------|

F|-----------------------------------------------------------------|
C|-----------------------------------------------------------------|
G|-------------------------6--6--6--6--6x--------------------------|
C|-4--4--4--4--6--6--6--6------------------------------------------|

Chorus x 2

Post-Chorus
F|-----------------------------------------------|
C|-----------------------------------------------|
G|-----------------------------------------------|
C|-1~----------------6-6----1~-------------------|

Verse II
F|-----------------------------------------------------------------|
C|-----------------------------------------------------------------|
G|-----------------------------------------------------------------|
C|-1-1-1-1-1-1-1-1-1-1-1-1-1-1-1-1-6-6-6-6-6-6-6-6-6-6-6-6-6-6-6-6-|
                                                                                   x 2
F|-------------------------------------------------------------------------|
C|-------------------------------------------------------------------------|
G|-------------------------------------------------------------------------|
C|-10-10-10-10-10-10-10-10-8-8-8-8-8-8-8-8-6-6-6-6-6-6-6-6-6-6-6-6-6-6-6-6-|

F|---------------------------------------------------------|
C|---------------------------------------------------------|
G|-3--3--3-3-3-3-----------------------------6--6--6-6-6-6-|
C|---------------6--6--6-6-6-6-1--1--1-1-1-1---------------|

F|---------------------------------------------------------|
C|---------------------------------------------------------|
G|-3--3--3-3-3-3-------------------------------------------|
C|---------------6--6--6-6-6-6-1--1--1--1--1x--------------|

Chorus x 3

Breakdown
F|---------------------------------------------------------------|
C|---------------------------------------------------------------|
G|-----------------------------------------------------------1---|
C|-1~------------------------1--1--1x----------------------1---1-|

F|--------------------------------------------------------------------------|
C|--------------------------------------------------------------------------|
G|-3~------------------6~----------------3~-----------------6-6-6--6-6--6-6-|
C|-----------6~-----------------------------------6~------------------------|

F|-----------------------------|
C|-----------------------------|
G|-----------------------------|
C|-1-1-1----1--1--1-1--1-1-1-1-|            
Submit corrections


        Kali Ma  lessons Hard to play? Try these video lessons and learn fast Kali Ma  lessons
        
↑ Back to top | Tablatures and chords for acoustic guitar and electric guitar, ukulele, drums are parodies/interpretations of the original songs. You may use it for private study, scholarship, research or language learning purposes only