» » »

Neck Deep - Smooth Seas Dont Make Good Sailors Bass

Artists:  A B C D E F G H I J K L M N O P Q R S T U V W X Y Z # 

Smooth Seas Dont Make Good Sailors Bass

(ver. 1) Click to play this song!
Neck Deep
 Rating:
4.3/5 (22 votes)

 Smooth Seas Dont Make Good Sailors  lessons Tabs too difficult? Try these video lessons and learn fast
 
                Tuning: Drop C

Main Riff
F|-----------------------------------------------------------------|
C|-----------------------------------------------------------------|
G|-5-5-5-5-5-5-5-5-5-5-5-5-5-5-5-5---------------------------------|
C|---------------------------------4-4-4-4-4-4-4-4-5-5-5-5-5-5-5-5-|

F|-----------------------------------------------------------------|
C|-------------------------------------------------2-2-2-2-4-4-4-4-|
G|-5-5-5-5-5-5-5-5-5-5-5-5-5-5-5-5-2-2-2-2-2-2-2-2-----------------|
C|-----------------------------------------------------------------|

F|------------------------------------------------------------------------------------------------------------|
C|--------------------------------------------------------------------------------------------2-2-2-2-4-4-4-4-|
G|-5-5-5-5--5--5-5--5-5-5-5--------------------------5-5-5-5--5--5-5--5-5-5-5-2-2-2-2-2-2-2-2-----------------|
C|--------------------------4-4-4-4--4--4-4--4-4-4-4----------------------------------------------------------|

Verse I
F|-----------------------------------------------------------------|
C|-----------------------------------------------------------------|
G|-----------------------------------------------------------------|
C|-0-0-0-0-0-0-0-0-0-0-0-0-0-0-0-0-0-0-0-0-0-0-0-0-0-0-0-0-0-0-0-0-|

F|-----------------------------------------------------------------|
C|-----------------------------------------------------------------|
G|-----------------------------------------------------------------|
C|-2-2-2-2-2-2-2-2-2-2-2-2-2-2-2-2-7-7-7-7-7-7-7-7-7-7-7-7-7-7-7-7-|

F|-----------------------------------------------------------------------------------------------------|
C|-----------------------------------------------------------------------------------------------------|
G|-----------------------------------------------------------------------------------------------------|
C|-0-0-0--0-0--0-0-0-0--0-0-0-0-0--0-0--0-0-0-0--0-0-2-2-2--2-2--2-2-2-2--2-2-7-7-7--7-7--7-7-7-7--\\\-|

Pre-Chorus (or you could just play 0's on the fourth string)
F|---------------------------------------------------------------|
C|---------------------------------------------------------------|
G|-------5-5-5-------5-5-5-----5--------5-5-5-------5-5-5-2-0----| 
C|-0-0-0-------0-0-0-------0-0----0-0-0-------0-0-0-----------5--|

F|---------------------------------------------------------------|
C|---------------------------------------------------------------|
G|-------5-5-5-------5-5-5-----5---------------------------------|
C|-0-0-0-------0-0-0-------0-0----2-2-2-2-2-2-2-2-5-5-5-5-5x-----|

Chorus
F|-----------------------------------------------------------------|
C|-----------------------------------------------------------------|
G|-5-5-5-5-5-5-5-5-5-5-5-5-5-5-5-5---------------------------------|
C|---------------------------------4-4-4-4-4-4-4-4-5-5-5-5-5-5-5-5-|

F|-----------------------------------------------------------------|
C|-----------------------------------------------------------------|
G|-2-2-2-2-2-2-2-2-------------------------------------------------|
C|-----------------7-7-7-7-7-7-7-7-5-5-5-5-5-5-5-5-5-5-5-5-5-5-5-5-|

"Smooth seas don't make good sailors"
F|---------------------------------------------------|
C|---------------------------------------------------|
G|---------------------------------------------------|
C|-0-0-0-0--0--0-0--0-0-0-0-5-5-5-5--5--5-5--5-5-4-4-|

F|----------------------------------------------------------------|
C|----------------------------------------------------------------|
G|--------------------------2-2-2-2-2-2-2-2------------------5----|
C|-0-0-0-0--0--0-0--0-0-0-0-----------------2-2-2-2-4-4-4-4-(0)---|

Interlude
F|---------------|
C|---------------|
G|---------------|
C|-5-5-5-5-4--2--|

F|-------------------------------------------------------------------|
C|-------------------------------------------------------------------|
G|-5-5-5-----------------------------5-5-5---------------------------| x 3
C|----------4----4-5-5-5----7-7-7-------------4----4-5-5-5-5-5-5-4-4-|

Pre-Chorus Variation
F|---------------------------------------------------------------|
C|---------------------------------------------------------------|
G|-------5-5-5-------5-5-5-----5--------5-5-5-------5-5-5x-------| 
C|-0-0-0-------0-0-0-------0-0----0-0-0-------0-0-0--------------|

Chorus II
F|-----------------------------------------------------------------|
C|-----------------------------------------------------------------|
G|-5-5-5-5-5-5-5-5-5-5-5-5-5-5-5-5---------------------------------|
C|---------------------------------4-4-4-4-4-4-4-4-5-5-5-5-5-5-5-5-|

F|-----------------------------------------------------------------|
C|-----------------------------------------------------------------|
G|-2-2-2-2-2-2-2-2-------------------------------------------------|
C|-----------------7-7-7-7-7-7-7-7-5-5-5-5-5-5-5-5-5-5-5-5-5-5-5-5-|

"Smooth seas don't make good sailors"
F|---------------------------------------------------|
C|---------------------------------------------------|
G|---------------------------------------------------|
C|-0-0-0-0--0--0-0--0-0-0-0-5-5-5-5--5--5-5--5-5-4-4-|

F|----------------------------------------------------------|
C|----------------------------------------------------------|
G|--------------------------2-2-2-2-2-2-2-2-----------------|
C|-0-0-0-0--0--0-0--0-0-0-0-----------------2-2-2-2-4-4-4-4-|

Bridge
F|-----------------------------------------------------------------|
C|-----------------------------------------------------------------|
G|-----------------------------------------------------------------|
C|-2-2-2-2-2-2-2-2-2-2-2-2-2-2-2-2-5-5-5-5-5-5-5-5-5-5-5-5-5-5-5-5-|

F|---------------------------------------------------------|
C|---------------------------------------------------------|
G|-5-5----5-5----5-5----5-5--------------------------------|
C|-----------------------------7-7----7-7----7-7----7-7----|

F|-----------------------------------------------------|
C|-----------------------------------------------------|
G|-----------------------------------------------------|
C|-2----2----2----2----2--2--5----5----5----5----5--5--|

F|---------------------------------------------------------------------------------------|
C|---------------------------------------------------------------------------------------|
G|-5~------------------------------------------------------------------------------------|
C|-------------------4~--------5~--------0~----------------2-2-2-2-2-2-2-2-5-5-5-5-5x----|

Final Chorus
F|-----------------------------------------------------------------|
C|-----------------------------------------------------------------|
G|-5-5-5-5-5-5-5-5-5-5-5-5-5-5-5-5---------------------------------|
C|---------------------------------4-4-4-4-4-4-4-4-5-5-5-5-5-5-5-5-|

F|-----------------------------------------------------------------|
C|-----------------------------------------------------------------|
G|-2-2-2-2-2-2-2-2-------------------------------------------------|
C|-----------------7-7-7-7-7-7-7-7-5-5-5-5-5-5-5-5-5-5-5-5-5-5-5-5-|

"Smooth seas don't make good sailors"
F|---------------------------------------------------|
C|---------------------------------------------------|
G|---------------------------------------------------|
C|-0-0-0-0--0--0-0--0-0-0-0-5-5-5-5--5--5-5--5-5-4-4-|

F|----------------------------------------------------------|
C|----------------------------------------------------------|
G|--------------------------2-2-2-2-2-2-2-2-----------------|
C|-0-0-0-0--0--0-0--0-0-0-0-----------------2-2-2-2-4-4-4-4-|

F|---------------------------------------------------------------------------|
C|---------------------------------------------------------------------------|
G|-2-2-2-2-2-2-2-2-----------------2-2--2-2-2--2---------------5-5-----------|
C|-----------------2-2-2-2-4-4-4-4---------------2-2--2-4-4--4---------------|            
Submit corrections


        Smooth Seas Dont Make Good Sailors  lessons Hard to play? Try these video lessons and learn fast Smooth Seas Dont Make Good Sailors  lessons
        
↑ Back to top | Tablatures and chords for acoustic guitar and electric guitar, ukulele, drums are parodies/interpretations of the original songs. You may use it for private study, scholarship, research or language learning purposes only