» » »

Neck Deep - Lime St Tabs

Artists:  A B C D E F G H I J K L M N O P Q R S T U V W X Y Z # 

Lime St Tabs

(ver. 1) Click to play this song!
Neck Deep
 Rating:
4.3/5 (27 votes)

 Lime St  lessons Tabs too difficult? Try these video lessons and learn fast
 
                [Intro]

RHYTHM (FIRST TIME ROUND PLAY QUIETLY)
d|---------------------------------------------------------------------------|
A|---------------------------------------------------------------------------|
F|---------------------------------------------------------------------------|
C|000-444444-000-444444-777-444444-555-44-005--4-----------------------------| x3  
G|000-444444-000-444444-777-444444-555-44-00-5-4-----------------------------|
C|000-444444-000-444444-777-444444-555-44-00-5-4-----------------------------|

LEAD (COMES IN AFTER RHYTHM IS PLAYED ONCE THROUGH)
d|---------------------------------------------------------------------------|
A|---------------------------------------------------------------------------|
F|777-1111-1111-11-11------14141414-99-99-9-9--121212-1111-77-11-12-11-------| (x2)
C|xxx-x-x--x-x--x--x--(x2)--x-x--x--xx-xx-x-x--x-x-x--x-x--xx-x--x--x--------|
G|555-9-9--9-9--9--9-------1212-12--77-77-7-7--101010-9-9--55-9--10-9--------|
C|---------------------------------------------------------------------------|


[Verse 1]

RHYTHM ONLY (LISTEN VERY CAREFULLY!)
d|---------------------------------------------------------------------------|
A|---------------------------------------------------------------------------|
F|---------------------------------------------------------------------------|
C|0000--------4444444-5-4-5-4-5-7--------------------------------------------|(x2)
G|0000-(x4)---4444444-5-4-5-4-5-7--------------------------------------------|
C|0000--------4444444-5-4-5-4-5-7--------------------------------------------|


[Pre-chorus 1]

d|---------------------------------------------------------------------------|
A|---------------------------------------------------------------------------|
F|---------------------------------------------------------------------------|
C|0---------0---------4----5--4--5--4--5--7----------------------------------|(x2)
G|0---------0---------4----5--4--5--4--5--7----------------------------------|
C|0---------0---------4----5--4--5--4--5--7----------------------------------|


[Chorus 1]

d|---------------------------------------------------------------------------|
A|---------------------------------------------------------------------------|
F|---------------------------------------------------------------------------|
C|000000-44-5555555--00000-77-55555555---77777-44-55555555--22222-44-555555--|(x2
G|000000-44-5555555--00000-77-55555555---77777-44-55555555--22222-44-5555555-| 
C|000000-44-5555555--00000-77-55555555---77777-44-55555555--22222-44-5555555-| 


[Post-chorus 1]
(INTRO)

RHYTHM 
d|---------------------------------------------------------------------------|
A|---------------------------------------------------------------------------|
F|---------------------------------------------------------------------------|
C|000-444444-000-444444-777-444444-555-44-005--4-----------------------------|(x2)  
G|000-444444-000-444444-777-444444-555-44-00-5-4-----------------------------|
C|000-444444-000-444444-777-444444-555-44-00-5-4-----------------------------|

LEAD (COMES IN AFTER RHYTHM IS PLAYED ONCE THROUGH)
d|---------------------------------------------------------------------------|
A|---------------------------------------------------------------------------|
F|777-1111-1111-11-11------14141414-99-99-9-9--121212-1111-77-11-12-11-------| (x2)
C|xxx-x-x--x-x--x--x--(x2)--x-x--x--xx-xx-x-x--x-x-x--x-x--xx-x--x--x--------|
G|555-9-9--9-9--9--9-------1212-12--77-77-7-7--101010-9-9--55-9--10-9--------|
C|---------------------------------------------------------------------------|


[Verse]

RHYTHM ONLY (LISTEN VERY CAREFULLY!)
d|---------------------------------------------------------------------------|
A|---------------------------------------------------------------------------|
F|---------------------------------------------------------------------------|
C|0000--------4444444-5-4-5-4-5-7--------------------------------------------|
G|0000-(x4)---4444444-5-4-5-4-5-7-(x2)---------------------------------------|
C|0000--------4444444-5-4-5-4-5-7--------------------------------------------|


[Bridge]
(ONE STRUM OF EACH CHORD)

d|---------------------------------------------------------------------------|
A|---------------------------------------------------------------------------|
F|---------------------------------------------------------------------------|
C|-0--4-5----0---7-5----0---4-5----2----4-5----------------------------------|
G|-0--4-5----0---7-5----0---4-5----2----4-5----------------------------------|
C|-0--4-5----0---7-5----0---4-5----2----4-5----------------------------------|


[Outro]
(CHORUS CHORDS - HALFTIME BEAT)

d|---------------------------------------------------------------------------|
A|---------------------------------------------------------------------------| 
F|---------------------------------------------------------------------------|
C|000000-44-5555555--00000-77-55555555---77777-44-55555555--22222-44-555555--|
G|000000-44-5555555--00000-77-55555555---77777-44-55555555--22222-44-5555555-| 
C|000000-44-5555555--00000-77-55555555---77777-44-55555555--22222-44-5555555-| 



[Verse]
[Chorus]
[Verse] 
[Chorus] X2
[Bridge] 
[Outro]             
Submit corrections


        Lime St  lessons Hard to play? Try these video lessons and learn fast Lime St  lessons
        
↑ Back to top | Tablatures and chords for acoustic guitar and electric guitar, ukulele, drums are parodies/interpretations of the original songs. You may use it for private study, scholarship, research or language learning purposes only