» » »

Neck Deep - Lime St Bass

Artists:  A B C D E F G H I J K L M N O P Q R S T U V W X Y Z # 

Lime St Bass

(ver. 1) Click to play this song!
Neck Deep
 Rating:
3.4/5 (29 votes)

 Lime St  lessons Tabs too difficult? Try these video lessons and learn fast
 
                Tuning: Drop C

Main Riff 
F|------------------------------------------------------------|
C|------------------------------------------------------------|
G|------------------------------------------------------------|
C|-0--0--0--0/12--12-12--12--12--0--0--0--0/12--12-12--12--12-|

F|---------------------------------------------------|
C|---------------------------------------------------|
G|---------------------------------------------------|
C|-7--7--7--7-7--7-7--7--7--5--5--5--5-5--5-5--5--5--|

F|------------------------------------------------------------|
C|------------------------------------------------------------|
G|------------------------------------------------------------|
C|-0--0--0--0/12--12-12--12--12--0--0--0--0/12--12-12--12--12-|

F|---------------------------------------------------|
C|---------------------------------------------------|
G|---------------------------------------------------|
C|-7--7--7--7-7--7-7--7--7--5--5--5-5-5-5x-----------|

Verse x 2
F|---------------------------------------------------------|
C|---------------------------------------------------------|
G|---------------------------------------------------------|
C|-0--0--0-0-0-0--0-0--0-0-0-0-0--0--0-0-0-0--0-0--0-0-0-0-|

F|-----------------------------------------------|
C|-----------------------------------------------|
G|-----------------------------------------------|
C|-4--4--4-4-4-4--4-4--4-4-4-4-5--5-4--4-5--5-7--|

Pre-Chorus
F|---------------------------------------------------------------|
C|---------------------------------------------------------------|
G|---------------------------------------------------------------|
C|-4--4-4-4-4-4-4-4-4-4-4-4-4-4-4-5--5-5-5-5-5-5-5-5-5-5-5-5-5-5-|

F|----------------------------------------------------------------|
C|----------------------------------------------------------------|
G|----------------------------------------------------------------|
C|-9--9-9-9-9-9-9-7--7-7-7-7-7-7-5--5-5-5-5-5-5-5-5-5-5-5-5-5-5-5-|

F|---------------------------------------------------------------|
C|---------------------------------------------------------------|
G|---------------------------------------------------------------|
C|-4--4-4-4-4-4-4-4-4-4-4-4-4-4-4-5--5-5-5-5-5-5-5-5-5-5-5-5-5-5-|

F|----------------------------------------------------------------|
C|----------------------------------------------------------------|
G|----------------------------------------------------------------|
C|-9--9-9-9-9-9-9-7--7-7-7-7-7-7-5~---------------------------17\-|

Chorus
F|-------------------------------------------------------------------------------------------------------|
C|-------------------------------------------------------------------------------------------------------|
G|-------------------------------------------------------------------------------------------------------|
C|-0--0--0---0-4--4--4---4-5--5--5---5-5--5--5--5---5-0--0--0---0-4--4--4---7-5--5--5---5-5--5--5--5---5-|

F|---------------------------------------------------------------------------|
C|---------------------------------------------------------------------------|
G|---------------------------------------------------------------------------|
C|-9--9--9--9----4----5----5--5--5--5--5--5--2--2--2--2--2--4----5~----------|

Main Riff Variation x 2
F|------------------------------------------------------------|
C|------------------------------------------------------------|
G|------------------------------------------------------------|
C|-0--0--0--0/12--12-12--12--12--0--0--0--0/12--12-12--12--12-|

F|---------------------------------------------------|
C|---------------------------------------------------|
G|---------------------------------------------------|
C|-7--7--7--7-7--7-7--7--7--5--5--5--5-5--5-5--5--5--|

Verse (same as before) x 2

Pre-Chorus Variation
F|---------------------------------------------------------------|
C|---------------------------------------------------------------|
G|---------------------------------------------------------------|
C|-4--4-4-4-4-4-4-4-4-4-4-4-4-4-4-5--5-5-5-5-5-5-5-5-5-5-5-5-5-5-|

F|---------------------------------------------------------------|
C|---------------------------------------------------------------|
G|---------------------------------------------------------------|
C|-9--9-9-9-9-9-9-9-9-9-9-9-9-9-9-5--5-5-5-5-5-5-5-5-5-5-5-5-5-5-|

F|---------------------------------------------------------------|
C|---------------------------------------------------------------|
G|---------------------------------------------------------------|
C|-4--4-4-4-4-4-4-4-4-4-4-4-4-4-4-5--5-5-5-5-5-5-5-5-5-5-5-5-5-5-|

F|----------------------------------------------------------------|
C|----------------------------------------------------------------|
G|----------------------------------------------------------------|
C|-9--x--9--x--7--x--7--x--5~---------------------------------17\-|

Chorus Variation
F|-------------------------------------------------------------------------------------------------------|
C|-------------------------------------------------------------------------------------------------------|
G|-------------------------------------------------------------------------------------------------------|
C|-0--0--0---0-4--4--4---4-5--5--5---5-5--5--5--5---5-0--0--0---0-4--4--4---7-5--5--5---5-5--5--5--5---5-|

F|---------------------------------------------------------------------------|
C|---------------------------------------------------------------------------|
G|---------------------------------------------------------------------------|
C|-9--9--9--9----4----5----5--5--5--5--5--5--2--2--2--2--2--4----5~----------|

F|-------------------------------------------------------------------------------------------------------|
C|-------------------------------------------------------------------------------------------------------|
G|-------------------------------------------------------------------------------------------------------|
C|-0--0--0---0-4--4--4---4-5--5--5---5-5--5--5--5---5-0--0--0---0-4--4--4---7-5--5--5---5-5--5--5--5---5-|

F|------------------------------------------------------------------------------------|
C|------------------------------------------------------------------------------------|
G|------------------------------------------------------------------------------------|
C|-9--9--9--9----4----5----5--5--5--5--5--5--2--2--2--2--2--4----5--5--5--5--5--5--5--|

Bridge
F|-------------------------------------------------------------------------------------|
C|-------------------------------------------------------------------------------------|
G|-------------------------------------------------------------------------------------|
C|-0~----------------4~----5~----------------0~----------------7~----5~----------------|

F|-------------------------------------------------------------------------------------|
C|-------------------------------------------------------------------------------------|
G|-------------------------------------------------------------------------------------|
C|-0~----------------4~----5~----------------2~----------------7~----5~----------------|

Final Chorus/Outro
F|-------------------------------------------------|
C|-------------------------------------------------|
G|-------------------------------------------------| x 3
C|-0--0--0--0--0--4--4--4--5--5--5--5--5--7--7--7--|

F|-------------------------------------------------|
C|-------------------------------------------------|
G|-------------------------------------------------|
C|-2--2--2--2--2--5----7~--------------------------|

F|---------------------------------------------------------------------------|
C|---------------------------------------------------------------------------|
G|---------------------------------------------------------------------------|
C|-0~------------------------------------------------------------------------|            
Submit corrections


        Lime St  lessons Hard to play? Try these video lessons and learn fast Lime St  lessons
        
↑ Back to top | Tablatures and chords for acoustic guitar and electric guitar, ukulele, drums are parodies/interpretations of the original songs. You may use it for private study, scholarship, research or language learning purposes only