» » »

Neck Deep - The Beach Is For Lovers Not Lonely Losers Bass

Artists:  A B C D E F G H I J K L M N O P Q R S T U V W X Y Z # 

The Beach Is For Lovers Not Lonely Losers Bass

(ver. 1) Click to play this song!
Neck Deep
 Rating:
3/5 (29 votes)

 The Beach Is For Lovers Not Lonely Losers  lessons Tabs too difficult? Try these video lessons and learn fast
 
                Chorus
F|---------------------------------------------------------------------|
C|---------------------------------------------------------------------|
G|-2-2-2-2-2-2-2-------------------------------------------------------| x 2
C|------------------6-6-6-6-6-6-6----4-4-4-4-4-4-4----2-2-2-2-2-2-2----|

F|------------------------------------------------------------------|
C|------------------------------------------------------------------|
G|-2-2-----2-2-2----------------------------------------------------|
C|------------------6-6----6-6-6----4-4----4-4-4----2-2----2-2-2----|

F|---------------------------------------------------------------------|
C|---------------------------------------------------------------------|
G|-2-2-2-2-2-2-2-------------------------------------------------------| 
C|------------------6-6-6-6-6-6-6----4-4-4-4-4-4-4----2-2-2--2-2-2-----|

Verse I
F|-------------------------------------|
C|-------------------------------------|
G|-2----2-4----------------------------| x 4
C|----------6----6-9-4----4-6-2----2-4-|

F|----------------------------------------------------------------|
C|----------------------------------------------------------------|
G|2-2-2-2-2-2-2-2-------------------------------------------------|
C|----------------6-6-6-6-6-6-6-6-4-4-4-4-4-4-4-4-2-2-2-2-2-2-2-2-|

F|------------------------------------------------------------|
C|------------------------------------------------------------|
G|2x--2x--2x--2x----------------------------------------------|
C|----------------6x--6x--6x--6x--4x--4x--4x--4x--2x----2x----|

Chorus

Verse II
F|-------------------------------------|
C|-------------------------------------|
G|-2----2-4----------------------------| x 2
C|----------6----6-9-4----4-6-2----2-4-|

F|----------------------------------------------------------------|
C|----------------------------------------------------------------|
G|2-2-2-2-2-2-2-2-------------------------------------------------|
C|----------------6-6-6-6-6-6-6-6-4-4-4-4-4-4-4-4-2-2-2-2-2-2-2-2-|

F|------------------------------------------------------------|
C|------------------------------------------------------------|
G|2x--2x--2x--2x----------------------------------------------|
C|----------------6x--6x--6x--6x--4x--4x--4x--4x--2x----------|

Chorus

Bridge
F|-----------------------------------------------------------------------------------|
C|-----------------------------------------------------------------------------------|
G|-2~--------------------------------------------------------------------------------|
C|-------------------(4)~----------------(6)~----------------(2)~--------(4)~--------|

F|------------------------------------------------------------------------------------|
C|------------------------------------------------------------------------------------|
G|-2--2--2x---------------------------------------------------------------------------|
C|--------------------4~------------------6~------------------2--2--2--2--4--4--4--4--|

Final Chorus
F|---------------------------------------------------------------------|
C|---------------------------------------------------------------------|
G|-2-2-2-2-2-2-2-------------------------------------------------------| x 2
C|------------------6-6-6-6-6-6-6----4-4-4-4-4-4-4----2-2-2-2-2-2-2----|

F|-----------------------------------------------------------------|
C|-----------------------------------------------------------------|
G|-2x--2x--2x--2x--------------------------------------------------| 
C|-----------------6x--6x--6x--6x--4x--4x--4x--4x--2x--2x--2x--2x--|

F|-----------------------------------------------------------------|
C|-----------------------------------------------------------------|
G|-2x--2x--2x--2x--------------------------------------------------| 
C|-----------------6x--6x--6x--6x--4x--4x--4x--4x--2x--2x--2~------|
            
Submit corrections


        The Beach Is For Lovers Not Lonely Losers  lessons Hard to play? Try these video lessons and learn fast The Beach Is For Lovers Not Lonely Losers  lessons
        
↑ Back to top | Tablatures and chords for acoustic guitar and electric guitar, ukulele, drums are parodies/interpretations of the original songs. You may use it for private study, scholarship, research or language learning purposes only