» » »

Neck Deep - Cant Kick Up The Roots Tabs

Artists:  A B C D E F G H I J K L M N O P Q R S T U V W X Y Z # 

Cant Kick Up The Roots Tabs

(ver. 3) Click to play this song!
Neck Deep
 Rating:
2.1/5 (28 votes)

 Cant Kick Up The Roots  lessons Tabs too difficult? Try these video lessons and learn fast
 
                Order Of Parts:
-Intro
-Verse 1
-Prechorus Part 1
-Chorus
-Verse 2
-Prechorus Part 1/2
-Chorus
-Breakdown
-Chorus
-Outro
-Last Riff



Intro/Chorus Rhythm:
e|--------|--------------|-----------|--------------|--------------|
B|--------|--------------|-----------|--------------|--------------|
G|--------|--------------|-----------|--------------|--------------|
D|--1--1--|--1--8--6--6--|--6--8--1--|--1--8--6--6--|--6--5--6--8--|
A|--1--1--|--1--8--6--6--|--6--8--1--|--1--8--6--6--|--6--5--6--8--|
D|--1--1--|--1--8--6--6--|--6--8--1--|--1--8--6--6--|--6--5--6--8--|

Intro/Chorus Rhythm (Continued):
e|--------|--------------|--------------|------------------|
B|--------|--------------|--------------|------------------|
G|--------|--------------|--------------|------------------|
D|--1--1--|--1--8--6--6--|--6--8--1--1--|--1--8--10--8--6--|
A|--1--1--|--1--8--6--6--|--6--8--1--1--|--1--8--10--8--6--|
D|--1--1--|--1--8--6--6--|--6--8--1--1--|--1--8--10--8--6--|

Intro/Chorus Lead Chord (Listen For Rhythm):
e|-----|
B|--4--|
G|--3--|
D|-----|
A|-----|
D|-----|

Verse 1 Rhythm (Panned Right on the stereo track):
e|-----|
B|--4--|
G|--3--|
D|--1--|
A|-----|
D|-----|


Verse 1 Lead (Panned Left on the stereo track)(Clean):
e|-----6--|-----6--3--|
B|--4-----|--4--------|
G|--------|-----------|
D|--------|-----------|
A|--------|-----------|
D|--------|-----------|

Repeated Riff (Transition to Prechorus):
e|---------------------|
B|---------------------|
G|---------------------|
D|--10--8--6--5--6--8--|
A|--10--8--6--5--6--8--|
D|--10--8--6--5--6--8--|

Pre-Chorus Chords:
E|---------------|
B|---------------|
G|---------------|
D|--10--8--6--1--|
A|--10--8--6--1--|
D|--10--8--6--1--|

Prechorus Lead:
e|--6-----------------------|--6-----3-----------------|
B|-----4--3--4--3--4--3--4--|-----4-----4-----6--6--4--|
G|--------------------------|--------------------------|
D|--------------------------|--------------------------|
A|--------------------------|--------------------------|
D|--------------------------|--------------------------|

Repeated Riff (Transition to Chorus):
e|---------------------|
B|---------------------|
G|---------------------|
D|--10--8--6--5--6--8--|
A|--10--8--6--5--6--8--|
D|--10--8--6--5--6--8--|


Verse 2 Chords (Comes In After A Few Measures Of Bass):
e|------------------|
B|------------------|
G|------------------|
D|--1--6--10--8-----|
A|--1--6--10--8-----|
D|--1--6--10--8-----|

Prechorus Part 2 Rhythm (Comes in after two runs of Pre-Chorus 1):
e|--------------|-----------|
B|--------------|-----------|
G|--5--8--------|-----------|
D|--5--8--8--6--|-----6--8--|
A|--3--6--8--6--|--3--6--8--|
D|--------8--6--|--3--6--8--|

Prechorus 2 Lead:
e|--6-----------------------|--6-----------------------------------|
B|-----4--3--4--3--4--3--4--|-----4--3--4--3--4-----3h4--3h4--4/6--|
G|--------------------------|--------------------------------------|
D|--------------------------|--------------------------------------|
A|--------------------------|--------------------------------------|
D|--------------------------|--------------------------------------|

Prechorus 2 Lead (Continued):
e|--6-----3-----------------|--------------------------------------3----------------------|---------|
B|-----4-----4--3--4--3--4--|--4--4--3--3--6--6--3--3--4--4--3--3-----4-----4--3--6--3h4--|--4h6p4--|
G|--------------------------|-------------------------------------------------------------|---------|
D|--------------------------|-------------------------------------------------------------|---------|
A|--------------------------|-------------------------------------------------------------|---------|
D|--------------------------|-------------------------------------------------------------|---------|
                                                                                Palm-Muted^


Breakdown Riff/Rhythm (Find out the rhythm in which you play it) :
e|----------------------------|-----|
B|----------------------------|-----|
G|----------------------------|--5--|
D|--10--6--1-----1/3-----3\1--|--5--|
A|--10--6--1-----1/3-----3\1--|--3--|
D|--10--6--1-----1/3-----3\1--|-----|
        Don't play every second time^

Breakdown Lead (Comes in with the vocals/Each of these parts serve different
Purposes. Listen Carefully for the right time to use each one):
e|----------------------|----------|----------------------------|-----------------|
B|----------------------|----------|----------------------------|-----------------|
G|--12--12--12--12--12--|--8/10/8--|--12--12--10--12--10--8--5--|--10--12--10--8--|
D|--x---x---x---x----x--|--x-x-/x--|---x--x---x---x---x---x--x--|--x---x---x---x--|
A|--10--10--10--10--10--|--6/8/6---|--10--10--8---10--8---6--3--|--8---10--8---6--|
D|----------------------|----------|----------------------------|-----------------|

Chords For Last Lines of Breakdown:
e|--------|
B|--------|
G|--------|
D|--6--8--|
A|--6--8--|
D|--6--8--|

Outro Chords:
e|--------------|
B|--------------|
G|-----3--5-----|
D|--1--3--5--6--|
A|--1--1--3--6--|
D|--1--------6--|

Outro Lead Chords:
e|-----|----------------------|
B|-----|----------------------|
G|--8--|--8--7--13--12-----8--|
D|--x--|--x--x---x--x------x--|
A|--6--|--6--5--11--10-----6--|
D|-----|----------------------|

Last Riff Rhythm(Repeated Riff):
e|---------------------|
B|---------------------|
G|---------------------|
D|--10--8--6--5--6--8--|
A|--10--8--6--5--6--8--|
D|--10--8--6--5--6--8--|

Last Riff Lead (Repeated Riff Moved To Octaves on the A String):
e|---------------------------------|
B|---------------------------------|
G|--12--11--8-----7/8/10-----10\8--|
D|--x---x---x-----x-x-x------x-x---|
A|--10--8---6-----5/6/8------8\6---|
D|---------------------------------|
            
Submit corrections


        Cant Kick Up The Roots  lessons Hard to play? Try these video lessons and learn fast Cant Kick Up The Roots  lessons
        
↑ Back to top | Tablatures and chords for acoustic guitar and electric guitar, ukulele, drums are parodies/interpretations of the original songs. You may use it for private study, scholarship, research or language learning purposes only