» » »

Neck Deep - Cant Kick Up The Roots Tabs

Artists:  A B C D E F G H I J K L M N O P Q R S T U V W X Y Z # 

Cant Kick Up The Roots Tabs

(ver. 1) Click to play this song!
Neck Deep
 Rating:
2/5 (28 votes)

 Cant Kick Up The Roots  lessons Tabs too difficult? Try these video lessons and learn fast
 
                Tuning: Drop C (CGCFAD)

INTRO/CHORUS

D|---------------------------------------------------------------------------|
A|---------------------------------------------------------------------------|
F|-----------5-3-3----3-5----------5-3-3----3-3-3-5--------------------------|
C|--3-3----3-5-3-3----3-5-3-3----3-5-3-3----3-3-3-5--------------------------|
G|--3-3----3-3-1-1----1-3-3-3----3-3-1-1----1-0-1-3--------------------------|
C|--3-3----3--------------3-3----3-------------------------------------------|

D|---------------------------------------------------------------------------|
A|---------------------------------------------------------------------------|
F|-----------5-3-3----3-5----------5--7--5--3--------------------------------|
C|--3-3----3-5-3-3----3-5-3-3----3-5--7--5--3--------------------------------|
G|--3-3----3-3-1-1----1-3-3-3----3-3--5--3--1--------------------------------|
C|--3-3----3--------------3-3----3-------------------------------------------|

VERSE 1

D|---------------------------------------------------------------------------|
A|---------------------------------------------------------------------------|
F|-------------------------------------------7--5--3-------------------------|
C|--3-------------8-------------3------------7--5--3-------------------------|
G|--3-------------8----(x3)-----3------------5--3--1-------------------------|
C|--3-------------8-------------3--------------------------------------------|

'Day by day...' (see video for strumming pattern)

D|---------------------------------------------------------------------------|
A|---------------------------------------------------------------------------|
F|--7--7-7--7-7---5--5-5--5-5---3--3-3--3-3----------------------------------|
C|--7--7-7--7-7---5--5-5--5-5---3--3-3--3-3---3--3-3--3-3--------------------|
G|--5--5-5--5-5---3--3-3--3-3---1--1-1--1-1---3--3-3--3-3--------------------|
C|--------------------------------------------3--3-3--3-3--------------------|

D|---------------------------------------------------------------------------|
A|---------------------------------------------------------------------------|
F|--7--7-7--7-7---5--5-5--5-5---7--5--3--3-3-5-------------------------------|
C|--7--7-7--7-7---5--5-5--5-5---7--5--3--3-3-5-------------------------------|
G|--5--5-5--5-5---3--3-3--3-3---5--3--1--0-1-3-------------------------------|
C|---------------------------------------------------------------------------|

--CHORUS--

'I've seen a bunch...' (no guitar for first bit)

Pick scr*pe into:

D|---------------------------------------------------------------------------|
A|---------------------------------------------------------------------------|
F|--------------------7-------5-------7--5--3---3-3-5------------------------|
C|--3--------3--------7-------5-------7--5--3---3-3-5------------------------|
G|--3--------3--------5-(x8)--3-(x8)--5--3--1---0-1-3------------------------|
C|--3-(x16)--1-(x16)---------------------------------------------------------|

'Day by day...' 

D|---------------------------------------------------------------------------|
A|---------------------------------------------------------------------------|
F|--7--7-7--7-7----5--5-5--5-5----3--3-3--3-3--------------------------------|
C|--7--7-7--7-7----5--5-5--5-5----3--3-3--3-3----3--3-3--3-3-----------------|
G|--5--5-5--5-5----3--3-3--3-3----1--1-1--1-1----3--3-3--3-3-----------------|
C|-----------------------------------------------3--3-3--3-3-----------------|

D|---------------------------------------------------------------------------|
A|---------------------------------------------------------------------------|
F|--7--7-7--7-7----5--5-5--5-5----3--3-3--3-3----3--3-3--3-3-----------------|
C|--7--7-7--7-7----5--5-5--5-5----3--3-3--3-3----3--3-3--3-3-----------------|
G|--5--5-5--5-5----3--3-3--3-3----1--1-1--1-1----1--1-1--1-1-----------------|
C|---------------------------------------------------------------------------|

D|---------------------------------------------------------------------------|
A|---------------------------------------------------------------------------|
F|--7--7-7--7-7----10--10-10--10-10----5--5-5--5-5----3--3-3--3-3------------|
C|--7--7-7--7-7----10--10-10--10-10----5--5-5--5-5----3--3-3--3-3------------|
G|--5--5-5--5-5----8---8--8---8--8-----3--3-3--3-3----1--1-1--1-1------------|
C|---------------------------------------------------------------------------|

D|--------------------------------x-x-x--------------------------------------|
A|--------------------------------x-x-x--------------------------------------|
F|-------------------3-3-3-3--5---x-x-x--------------------------------------|
C|--5-5-5-5-5-5-5-5--3-3-3-3--5---x-x-x--------------------------------------|
G|--5-5-5-5-5-5-5-5--1-1-1-1--3---x-x-x--------------------------------------|
C|--5-5-5-5-5-5-5-5---------------x-x-x--------------------------------------|

--CHORUS--

Bridge (watch the video for palm muting and rhythm)

D|---------------------------------------------------------------------------|
A|---------------------------------------------------------------------------|
F|--7--7-7-7--7-7-7----3--3-3-3----------------------------------------------|
C|--7--7-7-7--7-7-7----3--3-3-3---3-3-3--3-3--3-5-5-3-0----------------------|
G|--5--5-5-5--5-5-5----1--1-1-1---3-3-3--3-3--3-5-5-3-0----------------------|
C|--------------------------------3-3-3--3-3--3-5-5-3-0----------------------|
                                                                               (x2)
D|---------------------------------------------------------------------------|
A|---------------------------------------------------------------------------|
F|--7--7-7-7--7-7-7----3--3-3-3----------------------------------------------|
C|--7--7-7-7--7-7-7----3--3-3-3---3-3-3--3-3---3-5---5-3---------------------|
G|--5--5-5-5--5-5-5----1--1-1-1---3-3-3--3-3---3-5---5-3---------------------|
C|--------------------------------3-3-3--3-3---3-5---5-3---------------------|

D|---------------------------------------------------------------------------|
A|---------------------------------------------------------------------------|
F|--7--7-7-7--7-7-7----3--3-3-3----------------------------------------------|
C|--7--7-7-7--7-7-7----3--3-3-3---3-3-3--3-3--3-5-5-3-0----------------------|
G|--5--5-5-5--5-5-5----1--1-1-1---3-3-3--3-3--3-5-5-3-0----------------------|
C|--------------------------------3-3-3--3-3--3-5-5-3-0----------------------|

D|---------------------------------------------x-x-x-------------------------|
A|---------------------------------------------x-x-x-------------------------|
F|--3--3-3-3--3-3-3---3-3--3-3---5-5--5-5-5----x-x-x-------------------------|
C|--3--3-3-3--3-3-3---3-3--3-3---5-5--5-5-5----x-x-x-------------------------|
G|--1--1-1-1--1-1-1---1-1--1-1---3-3--3-3-3----x-x-x-------------------------|
C|---------------------------------------------x-x-x-------------------------|

--CHORUS--

D|---------------------------------------------------------------------------|
A|---------------------------------------------------------------------------|
F|-----------5--------7---------3--------------------------------------------|
C|--3--------5--------7---------3--------------------------------------------| (x2)
G|--3--------3--(x6)--5--(x6)---1--(x6)--------------------------------------|
C|--3--(x6)------------------------------------------------------------------|

D|---------------------------------------------------------------------------|
A|---------------------------------------------------------------------------|
F|-----------5--------7---------3------------------5---------7-5-3-3-3-5-----|
C|--3--------5--------7---------3---------3--------5---------7-5-3-3-3-5-3-3-|
G|--3--------3--(x8)--5--(x8)---1--(x8)---3--------3--(x8)---5-3-1-0-1-3-3-3-|
C|--3--(x8)-------------------------------3--(x8)------------------------3-3-|            
Submit corrections


        Cant Kick Up The Roots  lessons Hard to play? Try these video lessons and learn fast Cant Kick Up The Roots  lessons
        
↑ Back to top | Tablatures and chords for acoustic guitar and electric guitar, ukulele, drums are parodies/interpretations of the original songs. You may use it for private study, scholarship, research or language learning purposes only