Home » I » Imagine Dragons »

Imagine Dragons - Smoke And Mirrors Tabs

Artists:  A B C D E F G H I J K L M N O P Q R S T U V W X Y Z # 

Smoke And Mirrors Tabs

(ver. 2) Click to play this song!
Imagine Dragons
Intro and Verses
E|----------------------------------------------------------------------|
B|13----13----13----13----13----12----12----12----12--10---10---10---10-|
G|----12----12----12----12----12----12----12----12---9----9----9----9---|
D|--10----10----10----10----10----10----10----10----7----7----7----7----|
A|----------------------------------------------------------------------|
E|----------------------------------------------------------------------|

Chorus
   C     G     Am        C      G   Am     E
E|----------------------------------------------------------------------------------|
B|---1-----3----1----1-----1-----3-----1-----------1-----3-----1-----1---13--12--10-|
G|--0-----0----2----2-----0-----0-----2------1----0-----0-----2-----2---------------|
D|-2-----0----2----2-----2-----0-----2------2----2-----0-----2-----2----------------|
A|3----------0----0-----3-----------0------2----3-----------0-----0-----------------|
E|------3---------------------3-----------0-----------3-----------------------------|

Solo
E|-----------------------------------------------------------------------------------15-15-14-12--12-12-14-9--|
B|8-8-7-5--5-5-7-3--8-8-7-5-5-3-5-5-7-------------------------3-3--3-3----------------------------------------|
G|-----------------------------------3b-3b-3b-3b-3b-3b-2h0--3b---3b----2h0------0-----------------------------|
A|--------------------------------------------------------2---------------2--0h2--2---------------------------|
E|------------------------------------------------------------------------------------------------------------|

E|15-15-14-12-12-9-12-12-14------------15-15-17-19-19-19--15-15-17-19-19-19-19b-19b-19-17-17-17-17-17-17-|
B|-------------------------10b-10-10h8-------------------------------------------------------------------|
G|------------------------------------9------------------------------------------------------------------|
D|-------------------------------------------------------------------------------------------------------|
A|-------------------------------------------------------------------------------------------------------|
E|-------------------------------------------------------------------------------------------------------|

E|19-19-19-19-19b-19b-19b-19-|
B|---------------------------|
G|---------------------------|
D|---------------------------|
A|---------------------------|
E|---------------------------|            
Submit corrections

↑ Back to top | Tablatures and chords for acoustic guitar and electric guitar, ukulele, drums are parodies/interpretations of the original songs. You may use it for private study, scholarship, research or language learning purposes only