Home » I » Imagine Dragons »

Imagine Dragons - Smoke And Mirrors Tabs

Artists:  A B C D E F G H I J K L M N O P Q R S T U V W X Y Z # 

Smoke And Mirrors Tabs

(ver. 1) Click to play this song!
Imagine Dragons
Tuning: standard

Intro:

e|8----8----8----8----|
B|----8----8----8----8|
G|---9----9----9----9-|  x3
D|--------------------|
A|--------------------|
E|--------------------|

Verse 1:

e|8----8----8----8----|7----7----7----7----|5----5----5----5----|5----5----5----5----|
B|----8----8----8----8|----8----8----8----8|----8----8----8----8|----8----8----8----8|
G|---9----9----9----9-|---9----9----9----9-|---9--- 9----9----9-|---9----9----9----9-| x5
D|--------------------|--------------------|--------------------|--------------------|
A|--------------------|--------------------|--------------------|--------------------|
E|--------------------|--------------------|--------------------|--------------------|
                                           |                    |                    |
                                          e|0------0------0-----|0------0------0-----|
                                          B|1------1------1-----|1------1------1-----|
                               Last time: G|2------2------2-----|2------2------2-----|
                                          D|2------2------2-----|2------2------2-----|
                                          A|0------0------0-----|0------0------0-----|
                                          E|x------x------x-----|x------x------x-----|




Chorus 1: 
        C              G
All I believe, Is it a dream?
            Am              
That comes crashing down on me?
            C
All that I own
            G                 Am    E
Is it just smoke and mirrors?

               C    G    Am
I want to believe

e|-8--|-7--|-5--|-4--|
B|----|----|----|----|
G|----|----|----|----|
D|----|----|----|----|
A|----|----|----|----|
E|----|----|----|----|


Verse 2:

e|8----8----8----8----|7----7----7----7----|5----5----5----5----|5----5----5----5----|
B|----8----8----8----8|----8----8----8----8|----8----8----8----8|----8----8----8----8|
G|---9----9----9----9-|---9----9----9----9-|---9--- 9----9----9-|---9----9----9----9-| x5
D|--------------------|--------------------|--------------------|--------------------|
A|--------------------|--------------------|--------------------|--------------------|
E|--------------------|--------------------|--------------------|--------------------|
                                           |                    |                    |
                                          e|0------0------0-----|0------0------0-----|
                                          B|1------1------1-----|1------1------1-----|
                               Last time: G|2------2------2-----|2------2------2-----|
                                          D|2------2------2-----|2------2------2-----|
                                          A|0------0------0-----|0------0------0-----|
                                          E|x------x------x-----|x------x------x-----|


Chorus 2: 
        C              G
All I believe, Is it a dream?
            Am              
That comes crashing down on me?
            C
All that I own
            G                 Am    E
Is it just smoke and mirrors?

               C    G    Am
I want to believe

e|-8--|-7--|-5--|-4--|
B|----|----|----|----|
G|----|----|----|----|
D|----|----|----|----|
A|----|----|----|----|
E|----|----|----|----|

Bridge:

C-G-Am-Am x2

Chorus 3: 

        C              G
All I believe, Is it a dream?
            Am              
That comes crashing down on me?
            C
All that I own
            G                 Am    E
Is it just smoke and mirrors?

               C    G    Am
I want to believe

e|-8--|-7--|-5--|-4--|
B|----|----|----|----|
G|----|----|----|----|
D|----|----|----|----|
A|----|----|----|----|
E|----|----|----|----|


Solo:

e|---------------------------------------------------------------------------------------|
B|---------------------------------------------------------------------------------------|
G|9h11-12-12-11-9--9-11-7~-7/12-12-11-9~-7-9-9-11---------------------7-7-7--------------|
D|------------------------------------------------9-8-8b8b8b---------9-----9-7--------5--|
A|-----------------------------------------------------------10-7~--7----------7~-5-7---7|
E|---------------------------------------------------------------------------------------|

e|12h14-15-15-14-12--12-12-14-------15-15-14-12--12--12-12-14---------------|
B|-----------------15---------15~-15---------------15-----------------------|
G|------------------------------------------------------------14-14h16p14---|
D|-----------------------------------------------------------------------14-|
A|--------------------------------------------------------------------------|
E|--------------------------------------------------------------------------|

e|15-15-17-19--15-15-17-19--19-19-20-20-19-17--17-19-19-20-19|
B|-----------------------------------------------------------|
G|-----------------------------------------------------------|
D|-----------------------------------------------------------|
A|-----------------------------------------------------------|
E|-----------------------------------------------------------|
            
Submit corrections

↑ Back to top | Tablatures and chords for acoustic guitar and electric guitar, ukulele, drums are parodies/interpretations of the original songs. You may use it for private study, scholarship, research or language learning purposes only