Home » I » Imagine Dragons »

Imagine Dragons - Shots Tabs

Artists:  A B C D E F G H I J K L M N O P Q R S T U V W X Y Z # 

Shots Tabs

(ver. 2) Click to play this song!
Imagine Dragons
[Chorus]
 
e|5---02--3-------0-2-3-0---5-----02---3-------0-2-3-0-------------22--2-2-2--0-0-0-0------------------------|
B|--3--------0-3---------------3----------0--3----------3-3-33--3----------------------2-2--2-2--2--3-0-3-0-3|
G|-----------------------------------------------------------------------------------------------------------|
D|-----------------------------------------------------------------------------------------------------------|
A|-----------------------------------------------------------------------------------------------------------|
E|-----------------------------------------------------------------------------------------------------------|
 
e|--------20----0-2-2----0-2-2-0-05------------------------20----022----022005------5--------775------------0|
B|-3-033------3-------3-------------2-0--3-030-----3-3033------3-----3---------20-----------------222222222--|
G|-----------------------------------------------2---------------------------------------77------------------|
D|-----------------------------------------------------------------------------------------------------------|
A|-----------------------------------------------------------------------------------------------------------|
E|-----------------------------------------------------------------------------------------------------------|
 
 
[Verse 1]
 
e|0--0--0--5---02--3-------0-2--3-0-5-----023-------0-2-3-0-------------2-2-2-2-2-0-0-0-0-0------------------|
B|-----------3--------0--3-------------3------0--3-----------3-3-3-3-3----------------------2-2-2-2-2-3-0-3-0|
G|-----------------------------------------------------------------------------------------------------------|
D|-----------------------------------------------------------------------------------------------------------|
A|-----------------------------------------------------------------------------------------------------------|
E|-----------------------------------------------------------------------------------------------------------|
 
e|------------2--0---0-22----0220020------------------------20-----0--2-2-----022005-----5------555-----775-|
B|-3--3-0-3-3------3-------3---------30--3-030-----3--3033------3---------3----------20---------------------|
G|----------------------------------------------2-------------------------------------------77------77------|
D|----------------------------------------------------------------------------------------------------------|
A|----------------------------------------------------------------------------------------------------------|
E|----------------------------------------------------------------------------------------------------------|
 
 
[Chorus]
 
e|------------0-0-0-5----02--3------0-2-30-5----02--3-----02-3-0--------------------------75---------7-5----|
B|222222222------------3-------0--3----------3---------3----------3----------57-----57-------7-5---------7-5|
G|-------------------------------------------------------------------77-7-7-----77-----7---------7-7--------|
D|----------------------------------------------------------------------------------------------------------|
A|----------------------------------------------------------------------------------------------------------|
E|----------------------------------------------------------------------------------------------------------|
 
e|----------------------75----------75---------------------------------------5555555---023-----02--3-0--5---|
B|--------57------57-------75-----------7-5---30-3--3-03-30-3-3033-2----333----------3-----0-3-------------3|
G|7-77-77---77-77----7---------77-----------7-------------------------2-------------------------------------|
D|----------------------------------------------------------------------------------------------------------|
A|----------------------------------------------------------------------------------------------------------|
E|----------------------------------------------------------------------------------------------------------|
 
 
[Verse 2]
 
e|023-----02--3-0------------------------7-5----------7-5--------75-----------------------------------75----|
B|----0-3----------------57---------57-------7-5----------75-----------75-------------57---------57------7-5|
G|-----------------7-7-7----7-7-7-7----7----------7----------77-------------7-77-7-7-----77--7-7---7--------|
D|----------------------------------------------------------------------------------------------------------|
A|----------------------------------------------------------------------------------------------------------|
E|----------------------------------------------------------------------------------------------------------|
 
e|----7-5------------------------------------555555--320----3-2-0---320---320---320----320---|
B|--------75----303-3-03-303--303-3-2----333-------------3--------3-----3-----3-----3-----3--|
G|7-7--------7------------------------2------------------------------------------------------|
D|-------------------------------------------------------------------------------------------|
A|-------------------------------------------------------------------------------------------|
E|-------------------------------------------------------------------------------------------|
            
Submit corrections

↑ Back to top | Tablatures and chords for acoustic guitar and electric guitar, ukulele, drums are parodies/interpretations of the original songs. You may use it for private study, scholarship, research or language learning purposes only