Home » I » Imagine Dragons »

Imagine Dragons - Shots Bass

Artists:  A B C D E F G H I J K L M N O P Q R S T U V W X Y Z # 

Shots Bass

(ver. 1) Click to play this song!
Imagine Dragons
Tuning: D A D G

Intro:
G|---------------------------------------------------------------------------|
D|---------------------------------------------------------------------------|
A|-----5555555555555555-22222222-00000000------------------------------------|
D|-12\-----------------------------------------------------------------------|

Verse 1:
G|---------------------------------------------------------------------------|
D|---------------------------------------------------------------------------| 
A|-----------2------------0-----------0--------------------------------------|   2x
D|-5-------------------------------------------------------------------------|

G|---------------------------------------------------------------------------|
D|---------------------------------------------------------------------------|
A|---------2-2-2-2-0-0-0-0-0-0-0-0-------------------------------------------| 2x
E|-5-5-5-5-------------------------------------------------------------------|

Chorus:
G|---------------------------------------------------------------------------|
D|---------------------------------------------------------------------------|
A|---------------------------------2222222222222222-0000000000000000---------|
D|-0000000000000000000000000000000-------------------------------------------|

Verse 2:
G|---------------------------------------------------------------------------|
D|---------------------------------------------------------------------------|
A|----------2----------0---/12-12-12-12-12-7-7-9-9---------------------------| 2x
D|-5-------------------------------------------------------------------------|

G|---------------------------------------------------------------------------|
D|---------------------------------------------------------------------------|
A|---------2-2-2-2-0-0-0-0-0-0-0-0-------------------------------------------| 2x
E|-5-5-5-5-------------------------------------------------------------------|
(for the second time slide up to A 12)

Chorus:
G|---------------------------------------------------------------------------|
D|---------------------------------------------------------------------------|
A|---------------------------------2222222222222222-0000000000000000---------|
D|-0000000000000000000000000000000-------------------------------------------|

Bridge:
G|---------------------------------------------------------------------------|
D|---------------------------------------------------------------------------|
A|-5~-----5-5-5-5-5-5-5-5-----------------5-5-5-5-5-5-5-5--------------------|
E|------------------------5-5-5-5-5-5-5-5-----------------5-5-5-5-5-5-5-5----|
            
Submit corrections

↑ Back to top | Tablatures and chords for acoustic guitar and electric guitar, ukulele, drums are parodies/interpretations of the original songs. You may use it for private study, scholarship, research or language learning purposes only