» » »

Def Leppard - Let It Go Tabs

Artists:  A B C D E F G H I J K L M N O P Q R S T U V W X Y Z # 

Let It Go Tabs

(ver. 3) Click to play this song!
Def Leppard
 Rating:
4.4/5 (14 votes)

 Let It Go lessons Tabs too difficult? Try these video lessons and learn fast
 
                [Intro]
e|------------------------------------------------------------|
B|------------------------------------------------------------|
G|----------4br-\2----------4br-p0---------4br-\2---5-7vvv----|
D|----------4br-\2----------4br-p0---------4br-\2---5-7vvv----|
A|----0-3-0---------0-3-0------------0-3-0--------------------|
E|------------------------------------------------------------|

e|------------------------------------------------------------|
B|------------------------------------------------------------|
G|----------4br-\2----------4br-p0---------4br-\2---5-4-2-0-7-|
D|----------4br-\2----------4br-p0---------4br-\2---5-4-2-0-7-|
A|----0-3-0---------0-3-0------------0-3-0--------------------|
E|------------------------------------------------------------|

e|--------------------------------------------------------------------|
B|--------------------------------------------------------------------|
G|----------4br-\2----------4br-p0---------4br-\2---5-4-2-0-7---2-----|
D|----------4br-\2----------4br-p0---------4br-\2---5-4-2-0-7---2-----|
A|----0-3-0---------0-3-0------------0-3-0----------------------0-----|
E|--------------------------------------------------------------------|            
Submit corrections


        Let It Go lessons Hard to play? Try these video lessons and learn fast Let It Go lessons
        
↑ Back to top | Tablatures and chords for acoustic guitar and electric guitar, ukulele, drums are parodies/interpretations of the original songs. You may use it for private study, scholarship, research or language learning purposes only