» » »

Def Leppard - When Love And Hate Collide Tabs

Artists:  A B C D E F G H I J K L M N O P Q R S T U V W X Y Z # 

When Love And Hate Collide Tabs

(ver. 1) Click to play this song!
Def Leppard
 Rating:
4/5 (4 votes)

 When Love And Hate Collide lessons Tabs too difficult? Try these video lessons and learn fast
 
                When love and hate collide  
Acoustic Version



Key of G 
 
Intro

G	D	Cadd9	G
G	D	Cadd9	Dsus4 D


-Verse-

		 G	   	   			 Em	      	  
You could have a change of heart, if only you would only change your mind

	   Cadd9  				 G	   D
instead of slamming down the phone babe, for the hundredth time. 

		      G 				Em	  Cadd9
Got your number on my wall, but I aint gonna make that call. When divided we stand
 
      G        D
babe, united we fall.



-Pre Chorus-


G				
Got the time got a chance gonna make it

Cadd9
Got my hands on your heart gonna take it

Em7		   Cadd9      D
All I know I can't fight this flame

		G				    Cadd9				
You could have a change of heart, if you would only change your mind

	  Em7			Cadd9	   D
Cause I'm crazy 'bout you baby, time after time



-Chorus-


	G
Without you

    D     Cadd9    D
One night alone  

          G        	   D
Is like a year without you baby

   Cadd9		D
Do you have a heart of stone

	Em
Without you

	D           Cadd9   	
Can't stop the hurt inside

      D		   G
When love and hate collide


I don't wanna fight no more, I don't know what we're fighting for
When we treat each other baby, like an act of war
I could tell a million lies and it would come as no surprise
When the truth is like a stranger, hits you right between the eyes

There's a time and a place and a reason
And I know I got a love to believe in
All I know got to win this time

[Repeat Chorus]


Solo

  Cadd9 				G
e|-------------------------------------------------------------------------------------| 
B|---------------8---8~~-----8--8--8~~--10b12-10b12---12-12-13-12\10---10--10-12-10----| 
G|---5---7---7/9---9------7/9--9-------------------------------------12--12--------12--| 
D|-5---5---5---------------------------------------------------------------------------| 
A|-------------------------------------------------------------------------------------| 
E|-------------------------------------------------------------------------------------| 


  Cadd9 
e|-----------10---------12----12~~-------------10----10h12--12--12~~-------------------| 
B|-----13--------------------------------13--------------------------------------------| 
G|-/12----12----12--/12----12---------12----12----12-----------------------------------| 
D|-------------------------------------------------------------------------------------| 
A|-------------------------------------------------------------------------------------| 
E|-------------------------------------------------------------------------------------| 
      

    G			       D
e|-------------------------------------------------------------------------------------|
B|--10b12r10--8--8--10b12~~------------------------------------------------------------| 
G|----------------------------------7-------7--------7---------------------------------| 
D|-----------------------------/9-------9--------7--------7--7h9p7---------------------| 
A|-------------------------------------------------------------------10----------------| 
E|-------------------------------------------------------------------------------------| 
  

		 G				    Cadd9
You could have a change of heart, if you would only change your mind

	  Em7                    Cadd9    D
Cause I'm crazy 'bout you baby...Crazy...Crazy


Without you
One night alone
Is like a year without you baby
Do you have a heart of stone
Without you
One night alone
Is like a year without you baby
If you have a heart at all
Without you
Can't stop the hurt inside
When love and hate collide
 
--Rabbishmitty Tabs--
            
Submit corrections


        When Love And Hate Collide lessons Hard to play? Try these video lessons and learn fast When Love And Hate Collide lessons
        
↑ Back to top | Tablatures and chords for acoustic guitar and electric guitar, ukulele, drums are parodies/interpretations of the original songs. You may use it for private study, scholarship, research or language learning purposes only