» » »

Def Leppard - Animal Tabs

Artists:  A B C D E F G H I J K L M N O P Q R S T U V W X Y Z # 

Animal Tabs

(ver. 1) Click to play this song!
Def Leppard
 Rating:
4/5 (6 votes)

 Animal lessons Tabs too difficult? Try these video lessons and learn fast
 
                 -------
||Intro|| 
 -------

e|------------------------------------------|
B|------------------------------------------|
G|------------------------------------------|
D|--10-9-10-9-10-9-10-9-10-9-10-9-10-9-10---|
A|--8--7-8--7-8--7-8--7-8--7-8--7-8--7-8----|
E|------------------------------------------|
    W  W W  W W  W W  W W  W W  W W  W W 

e|---------------------------------------------------------------------|
B|--10--------10--------10----11--------10b11~--11--------11----11-----|
G|---------------------------------------------------------------------|
D|-----10--10----10--10----10----10--10------------10--10----10----10--|
A|---------------------------------------------------------------------|
E|---------------------------------------------------------------------|
       .   .     .   .     .     .   .             .   .     .     .

e|--8---------------------------------|
B|-----------13-----13-13-13--13~-\---|
G|------------------------------------|
D|----10--10----10--10-10-10--10--\---|
A|------------------------------------|
E|------------------------------------|
      .   .     .
 
 -------
||Verse|| (0:16)
 -------

e|-------------------------------------------------------------------------|
B|---------------------------------------------------8--8------------------|
G|--10---10---10-10--10--9--9--9---10---10---10-10-10-10-10-10-9--9--------|
D|--10---10---10-10--10--10-10-10--10---10---10-10-10-10-10-10-10-10-------|
A|----8-8--8-8--8--------------------8-8--8-8------------------------------|
E|-------------------------------------------------------------------------|
      . .  . .  .                    . .  . .
                                  
                               
e|-----------------------------||------------| )
B|-----------------------------||------------| ))   
G|-----------------------------||------------| )))Ending For 1st
D|-----------------------------||------------| )))And 3rd Repeat
A|---------8--------8--------7-||--8----7--8~| ))
E|--10--10---10--10---10--10---||----10------| )   
    .   .    .   .    .   .          .  .
                                               
e|-----------| )             |--------------| )
B|-----------| ))            |--------------| ))
G|-----------| )))Ending For |--------------| )))Ending For 
D|-----------| )))2nd Repeat |--------------| )))4th Repeat
A|--8---7--8~| ))            |--10--8--7--8~| ))
E|----8------| )             |--------------| )
      . .
 
 ------------ 
||Pre-Chorus|| (0:48)
 ------------
                
e|-------------------------------------------------------------------------|
B|-------------------------------------------------------------------------|
G|----11---10---11~----11----10----11~----13----11----13--x-x-10-11---13\--|
D|--9----9----9-----11----11----11-----11----11----11-----x-x-11-11---11\--|
A|-------------------------------------------------------------------------|
E|-------------------------------------------------------------------------|

 --------
||Chorus|| (1:04)
 --------

e|------------------------------------------------------------------------|
B|------------------------------------------------------------------------|
G|----3-----3---------1-----1---------4-----4---------2-----2-------2-2-\-|
D|----4-----4---3-4---2-----2---2-4-4-4-4-4-4---4-----2-2-2-2-2-----2-2-\-|
A|--4-4-4-4-4-4-4-4-2-2-----2---2-4-2-2-2-2-2-2-2-4-0-0-0-0-0-0-2-4-0-0-\-|
E|--2-2-2-2-2-2-2-2-0-0-0-0-0-0-0-0---------------------------------------|
        . .   .     .   . .   .     .   . .   .     .   . .   .

e|------------------------------------------------------------------------|
B|------------------------------------------------------------------------|
G|---------3--------------------4---4--4-4-2-2-2-2-2-\---------bar--------|
D|----4----4-2-4---2---2--------4---4--4-4-2-2-2-2-2-\---------rest-------|
A|---------4-2-4---2---2--2-4-2-2-2-2--2-2-0-0-0-0-0-\--------------------|
E|--2----2-2-2-2-0-0-0-0--0-0---------------------------------------------|
                                                   W

e|---------------------------------------------------|
B|---------------------------------------------------|
G|----3-----3---------1-----1---------4-----4-2-2-2--|
D|----4-----4---3-4---2-----2---2-4-4-4-4-4-4-2-2-2--|
A|--4-4-4-4-4-4-4-4-2-2-----2---2-4-2-2-2-2-2-0-0-0--|
E|--2-2-2-2-2-2-2-2-0-0-0-0-0-0-0-0------------------|

 --------
||Bridge||
 --------

e|---------------------------------------------------------------------|
B|----15b17--r15-------------------------------------------------------|
G|---------------------------------------------------------------------|
D|---------------------------------------------------------------------|
A|---------------------------------------------------------------5-----|
E|--3------------3~----------5~------2~---3~---1--1--1--3~----3--------|
                                               W     W

e|-------------------------------------------------------------------------|
B|-------------------------------------------------------------------------|
G|------------------------------9^-10^-11^-12^-13^-14^-15^-16^-17^-18^-19^-|
D|-------------------------------------------------------------------------|
A|-------------------------5*~---------------------------------------------|
E|--0---------0--------3------0--------------------------------------------|

 ------
||Solo|| (2:41)
 ------

e|---------------------------------------------------------|
B|---------------------------------------------------------|
G|--5b7--5b7--r5--7b9-r7-5-5~--0h2--7-7-7-7-5-7-7/9~~~-----|
D|---------------------------------------------------------|
A|---------------------------------------------------------|
E|---------------------------------------------------------|

e|----------------------------------------------------------|
B|------------------8b10--8---------------------------------|
G|--5b7--5b7--r5--7---------7----7-7-7-7-5-7--9*\-----------|
D|----------------------------9~----------------------------|
A|----------------------------------------------------------|
E|----------------------------------------------------------|
                                              W

I Haven't Included Many Repeats In The Song.
            
Submit corrections


        Animal lessons Hard to play? Try these video lessons and learn fast Animal lessons
        
↑ Back to top | Tablatures and chords for acoustic guitar and electric guitar, ukulele, drums are parodies/interpretations of the original songs. You may use it for private study, scholarship, research or language learning purposes only