» » »

Def Leppard - Let It Go Bass

Artists:  A B C D E F G H I J K L M N O P Q R S T U V W X Y Z # 

Let It Go Bass

(ver. 1) Click to play this song!
Def Leppard
 Rating:
4/5 (4 votes)

 Let It Go lessons Tabs too difficult? Try these video lessons and learn fast
 
                this is a pretty simple song for the most part, but some of it is fun to play.

Intro
G-------|-----------|
D-------|-----------|
A-3--5~-|-3-2-0---5-|
E-------|-------3---|

G---------------------------------------------------------------|
D-------------------------------------------------------------7-|
A-0-3-0-0-0-0-0-0-0-3-0-0-0-0-0-0-0-3-0-0-0-0-0-0---3--2-3-2----|
E-----------------------------------------------------------3---|

G---------------------------------------------------------------|
D---------------------------------------------------------------|
A-0-3-0-0-0-0-0-0-0-3-0-0-0-0-0-0-0-3-0-0-0-0-0-0-0---3-2-0---5-|
E-----------------------------------------------------------3---|

Verse    x9
G-----------------------------------------------------------------|
D-----------------------------------------------------------------|
A-0-0-0-0-0-0-0-0-0-0-0-0-0-0-0-0-0-0-0-0-0-0-0-0-0-0-0-0-0-0-0-0-|
E-----------------------------------------------------------------|

on 10th repeat(goes straight into chorus)
G-------------------------------------------------------------|
D-------------------------------------------------------------|
A-0-0-0-0-0-0-0-0-0-0-0-0-0-0-0-0-0-0-0-0-0-0-0-0-0-0-0-3-2-0-|
E-------------------------------------------------------------|

Chorus                                           2nd repeat
G----------------------------------------------|-----------|
D--------------------------------------------7-|-----------|
A-0-3-000000-0-3-000000-0-3-0000000---3-2-0----|-3-2-0---5-|
E------------------------------------------3---|-------3---|

Verse
Chorus

Bridge
G--------------------------------------|
D--------------------------------------|
A---------5---3--5-5-3-3---------------|
E-5---3------------------3/-5---3---3~-|

G-----------------------------------------------------|----3--|
D--------------------------------------------3-2------|---5---|
A-5-55-555-------------2-3--5-5--3-3-3--5-3-5---3--x2-|-5~----|
E----------3-3-5-0-3-5---------------------------3----|-------|

G------------------------------------------------------|
D---------------------------------------------3-2------|
A--5-55-555-------------2-3--5-5--3-3-3--5-3-5---3-----| x2
E-----------3-3-5-0-3-5---------------------------3----|

guitar solo
G---------------------------------------------------------------------|
D-------------------------------------------------------------------7-|
A-0-3-0-3-2-0-0-0-0--0-3-0-3-2---------0-3-0-3-2-0-0-0-0--3--2-3-2----|
E------------------------------3-3-3-3----------------------------3---|

G-------------------------------------------------------------------|
D-------------------------------------------------------------------|
A-0-3-0-3-2-0-0-0-0--0-3-0-3-2---------0-3-0-3-2-0-0-0-0--3-2-0---5-|
E------------------------------3-3-3-3--------------------------3---|

           x2          on 3rd repeat
G---------------------------|--------|
D---------------------------|--------|
A-2-2-2-2-2-2-2---------2-2-|-5~-----|
E---------------5--2-5-5----|--------|

Verse
Chorus

Ending
G---------------------------------------------------------------|
D-------------------------------------------------------------7-|
A-0-3-0-0-0-0-0-0-0-3-0-0-0-0-0-0-0-3-0-0-0-0-0-0---3--2-3-2----|
E-----------------------------------------------------------3---|

G------------------------------------------------------------------|-------|
D------------------------------------------------------------------|-------|
A-0-3-0-0-0-0-0-0-0-3-0-0-0-0-0-0-0-3-0-0-0-0-0-0---3~-2~-0~----5~-|-0~~-0-|
E------------------------------------------------------------3~----|-------|
            
Submit corrections


        Let It Go lessons Hard to play? Try these video lessons and learn fast Let It Go lessons
        
↑ Back to top | Tablatures and chords for acoustic guitar and electric guitar, ukulele, drums are parodies/interpretations of the original songs. You may use it for private study, scholarship, research or language learning purposes only