Home » D » Def Leppard »

Def Leppard - Bringin On The Heartbreak Tabs

Artists:  A B C D E F G H I J K L M N O P Q R S T U V W X Y Z # 

Bringin On The Heartbreak Tabs

(ver. 1) Click to play this song!
Def Leppard
 Rating:
4/5 (4 votes)
                



              /*Def Leppard: Bringin' on the heartbreak*/


 Tab Explanation:

 10(b)12 : bend from 10th fret to 12th.
 = : keep string bent while playing others.
 7(h)9 : play first note then hammer on second.
 9(p)7 : play first then pull off to second.
 2/4 or 4\2 : Slide.
 P.M.: Palm Mute.
 v : Vibrate.


 (two guitars)

    Guitar 1.
  ³----------------|----------------------|-----------------------|--------
  ³-------10--12---|-------------10--12---|--------------10--12---|--------
  ³---9------------|--9------9------------|--10------9------------|-12(b)14
  ³----------------|----------------------|-----------------------|--------
  ³----------------|----------------------|-----------------------|--------
  ³----------------|----------------------|-----------------------|--------
  ³
  ³ Guitar 2.
  ³----------------|----------------------|-----------------------|--------
  ³----------------|----------------------|-----------------------|--------
  ³---5----7--9----|--5------5----7--9----|----------5----7--9----|-7(b)9--
  ³----------------|----------------------|--7--------------------|--------
  ³----------------|----------------------|-----------------------|--------
  ³----------------|----------------------|-----------------------|--------

    Guitar 1.
  ³---------------------------|---------------------------|----------------
  ³---------------13----------|---------------------------|----------------
  ³--12(b)14========14(b)12-9-|--12---10---9--9--7--9-7---|----------------
  ³---------------------------|-------------------------9-|--10------------
  ³---------------------------|---------------------------|----------------
  ³---------------------------|---------------------------|----------------
  ³
  ³ Guitar 2.
  ³---------------------------|---------------------------|----------------
  ³----------------8----------|---------------------------|----------------
  ³---7(b)9==========9(b)7--5-|---9----7---5--5--4--5-4---|----------------
  ³---------------------------|-------------------------5-|---7------------
  ³---------------------------|---------------------------|----------------
  ³---------------------------|---------------------------|----------------
               These notes are played at the same time        ^
     x<-  -  -  -  -  -  -  -  -  -  -  -  -  -  -  -  -  -  >|
     (1 Guitar)
   -----------------------------|--------------------------|--------------0
   --------------------1--0--1--|--------1--------0--------|--------3------
   --------2(p)0----------------|--------------------0-----|-----2-----2---
   -----2--------2--3-----------|-----2-----2--------------|---------------
   --0--------------------------|--0-----------------------|---------------
   -----------------------------|--------------3--------3--|--1------------

   -----------|--1---------------------0----------
   --3--------|-----3-----3---------3-----3-------
   -----2-----|--------3-----3-/-4--------------
   --------0--|-----------------------------------
   -----------|-----------------------------------
   -----------|-----------------------------------


   After playing Rhy.Fig.1 The singing starts.

   Lyrics:
        Verse 1:
                (Rhy.Fig.1)
                Gypsy, sitting looking pretty
                a broken rose with laughing eyes

                (Rhy.Fig.1)
                You're a myst'ry, always running wild
                like a child without a home

                (Rhy.Fig.1)
                You're always searching, searching for a feeling
                but it's easy come and easy go....

                ohoh, I'm sorry but its....

   Pre chorus:
    (w/distortion)                                    
   ----------------------------|----------------------------|---------------
   ----------------------------|----------------------------|---------------
   --------5/7\5---------------|--------7/9\7---------4-----|--5------------
   -----5---/7\5---------5-----|-----7---/9\7------4-----4--|--5---------5--
   --3------/5\3------5-----5--|--5------/7\5---2-----------|--3---------5--
   ----------------3-----------|----------------------------|------------3--
     True,  you're bringin'on the heartache     taking all the best of   me

     P.M..............               P.M................
   ---------------------|---------------------------------|----------------
   ---------------------|---------------------------------|----------------
   ---------------------|--5------------------------------|--5-------------
   --5-5-5--5-5-5--5-5--|--5--------5--5-5-5--5-5-5--5-5--|--5---------5---
   --5-5-5--5-5-5--5-5--|--3--------5--5-5-5--5-5-5--5-5--|--3---------5---
   --3-3-3--3-3-3--3-3--|-----------3--3-3-3--3-3-3--3-3--|------------3---
                       oh  can't you see         you got the best of   me

     P.M..............                                     
   ---------------------|---------------------------------|----------------
   ---------------------|---------------------------------|----------------
   ---------------------|--5------------------------------|----------------
   --5-5-5--5-5-5--5-5--|--5--------5--5-5-5--5-5-5--5----|----------------
   --5-5-5--5-5-5--5-5--|--3--------5--5-5-5--5-5-5--5----|----------------
   --3-3-3--3-3-3--3-3--|-----------3--3-3-3--3-3-3--3----|--5-------------
                oh        can't you see   you're bringin'on the heartbreak..

                                          Repeat chorus 3 more times.
   ---------------------|---------------------------------|----
   ---------------------|---------------------------------|----
   ---------------------|---------------------------------|----
   ---------------------|---------------------------------|----
   ---------------------|---------------------------------|----
   -----\1vvvv----------|--5--5-5-5--5-5-5--5-5-5--5-5----|----


                         Last time you repeat play
                      --|---------------------------------|--
                      --|---------------------------------|--
                      --|----------------3(b)5-----------\|--
                      --|--5------------------------------|--
                      --|--5------------------------------|--
                      --|--3------------------------------|--


   Small solo before second verse. Guitar 2 plays Rhy.fig.1
   ----------------------------|---------------------------------------|----
   ----------------------------|---------------------------------------|----
   --12(b)14vvv\--12(b)14vvv\--|--12(b)14(b)12vv\--7(b)9(b)7(b)9vvvvvvv|\---
   ----------------------------|---------------------------------------|----
   ----------------------------|---------------------------------------|----
   ----------------------------|---------------------------------------|----

   ----------------------------|-------------------------------
   ----------------------------|-------------------------------
   ----------------------------|---------------5--4vvvvvvv-----
   ----------------------------|-------3--5/7------------------
   -------------------------3--|--3/5--------------------------
   ---------------1--3-3/5-----|-------------------------------



       Verse 2:
                (Rhy.fig.1)
                You're such a secret, misty eyed and shady
                lady how you hold the key. ohh.

                (Rhy.fig.1)
                You're like a candle, your flame is slowly fading,
                burning out and burning me.

                can't you see? just tryin' to say to..


       Pre Chorus: (play riff A & B)
                you, you're bringin' on the heartache
                takin' .........

       Chorus: (plays the same)
                Bringin' on the heartbreak........


                ....oh, can't you see.
                no!, no!....etc


   
     Guitar 1
   ³---------------------------------------------|-------------------------
   ³---------------------------------------------|----13-12-10-------------
   ³-12(b)14--12(b)14vvv\--12(b)14--12(b)14vvv\--|--9----------12-10-9-----
   ³---------------------------------------------|---------------------10-9
   ³---------------------------------------------|-------------------------
   ³---------------------------------------------|-------------------------
   ³
   ³ Guitar 2
   ³---------------------------------------------|-------------------------
   ³---------------------------------------------|-------------------------
   ³---------------------------------------------|-------------------------
   ³-------------7------------------3------------|--5----------5---(5)-----
   ³---------7-------7----------3-------3--------|--5----------5---(5)-----
   ³----5-------------------1--------------------|--3----------3---(3)----0

      Guitar 1
   ³---------------|---------------------------------------|---------------
   ³---------------|---------------------------------------|--10--10--10-10
   ³---------------|----------------5-7(b)9(b)7(p)5--------|---------------
   ³-vvv-----------|------------5-7-----------------7vv7\--|---------------
   ³-------3(b)4---|------3-5/7----------------------------|---------------
   ³---------------|--5vv----------------------------------|---------------
   ³
   ³  Guitar 2
   ³---------------|---------------------------------------|---------------
   ³---------------|---------------------------------------|---------------
   ³---------------|----------5---------------2------------|---------------
   ³------2--------|------5-------5-------2-------2--------|--5---------5--
   ³--2-------2----|--3---------------0--------------------|--5---------5--
   ³---------------|---------------------------------------|--3---------3--


      Guitar 1
   ³----------------10--------15(b)17--|--15(b)17(b)15--12(h)15(p)12----12-
   ³-13--13--13------------------------|-----------------------------15----
   ³-------------9------9vvv-----------|-----------------------------------
   ³-----------------------------------|-----------------------------------
   ³-----------------------------------|-----------------------------------
   ³-----------------------------------|-----------------------------------
   ³
   ³  Guitar 2                            
   ³-----------------------------------|-----------------------------------
   ³-----------------------------------|-----------------------------------
   ³-----------------------------------|-----------------------------------
   ³----(5)---------------3------------|-----------------------------------
   ³----(5)-----------3-------1--------|-----------------------------------
   ³----(3)-------1--------------------|-----------------------------------

      Guitar 1
   ³---------------------------|---------------------/20--19--17-----------
   ³-15-13-12------------------|----------13--12vv\--------------17--------
   ³----------14vv\------------|------14-----------------------------17--16
   ³--------------------12-14--|--15---------------------------------------
   ³----------------/14--------|-------------------------------------------
   ³---------------------------|-------------------------------------------
   ³
   ³  Guitar 2  

      Guitar 1
   ³--|-------------------
   ³--|---20vvv\----------
   ³--|-------------------
   ³--|-------------------
   ³--|-------------------
   ³--|-------------------
   ³
   ³   Guitar 2 



   Chorus.......on the 4th time ending solo.

   --15-------15-------15------|15-------15-------15---------------------|-
   --15(b)17--15(b)17--15(b)17-|15(b)17--15(b)17--17(b)15(p)13-----------|-
   ----------------------------|-------------------------------14vv14v14v|-
   ----------------------------|-----------------------------------------|-
   ----------------------------|-----------------------------------------|-
   ----------------------------|-----------------------------------------|-

   -----------------------------|--------15-------------15(b)17-15-15(b)17-
   -13vv----13vv----13vv----13vv|15(b)17===17(b)15(p)13--------------------
   -----14vv----14vv----14vv----|------------------------------------------
   -----------------------------|------------------------------------------
   -----------------------------|------------------------------------------
   -----------------------------|------------------------------------------

   -15-15(b)17-15-17-|-20(b)22-20-20(b)22-20-20(b)22-20 20(b)22-20|20(b)22
   ------------------|--------------------------------------------|--------
   ------------------|--------------------------------------------|--------
   ------------------|--------------------------------------------|--------
   ------------------|--------------------------------------------|--------
   ------------------|--------------------------------------------|--------
                                                            depress t.bar
   -20--19-17-15(b)17-15(b)17-----|----------------------------------------
   -------------------------------|----------------------------------------
   ---------------------------X\--|--2vvvv4--5-----5--4--------------------
   ---------------------------X\--|-------------3vv------5--5v--\----------
   ---------------------------X\--|----------------------------------------
   ---------------------------X\--|----------------------------------------

                                                                fade out.

   Thats it, any comments, questions, reqs,etc. mail to me at

   Dino Tomasi.
            
Submit corrections

↑ Back to top | Tablatures and chords for acoustic guitar and electric guitar, ukulele, drums are parodies/interpretations of the original songs. You may use it for private study, scholarship, research or language learning purposes only