» » »

Def Leppard - Now Chords

Artists:  A B C D E F G H I J K L M N O P Q R S T U V W X Y Z # 

Now Chords

(ver. 1) Click to play this song!
Def Leppard
 Rating:
4/5 (4 votes)

 Now lessons Tabs too difficult? Try these video lessons and learn fast
 
                ***************************************************************************
This is the first tab for this song.  It sounds pretty accurate.  Have fun!
***************************************************************************

Standard Tuning - EADGBe


Intro/Verse - 

e----0-0-0-0-----0-0-0-----0-0-0-0--0-0-0--0-----0-0-0-0----0-0-0------0-0-0-0-----0--|
B----0-0-0-0-----0-0-0-----0-0-0-0--0-0-0--0-----0-0-0-0----0-0-0------0-0-0-0-----0--|
G--------------------0-----2--------2------2-----------------------------------------o|
D--2---------------------0---------0-------0----2----------2-------------------------o|
A--2-------------------------------------------3----------3----------2----------2-----|
E-0----------0-------0----------------------------------------------0-----------0-----|


Prechorus - C Em C D

Fill-In 1

e-3p2p0---0-----
B-------4-------
G---------------
D---------------
A---------------
E---------------


Chorus - Am C F C Am C Em


Verse 2

  P.M.
e---------------------------------------------------------------------------------------------------------|
B---------------------------------------------------------------------------------------------------------|
G------------9-9--------9-9----7-7--------7-7--------7-7----5-5--------5-5--------5-5-----9-9--------9-9--|
D-2-2--------9-9--------9-9----7-7--------7-7--------7-7----5-5--------5-5--------5-5-----9-9--------9-9--|
A-2-2--------7-7--------7-7----5-5--------5-5--------5-5----3-3--------3-3--------3-3-----7-7--------7-7--|
E-0-0-x-x-x-x----x-x-x-x----x-x----x-x-x-x----x-x-x-x----x-x----x-x-x-x----x-x-x-x----x-x-----x-x-x-x-----|


Prechorus


Fill-In 2 w/solo

e-3p2p0---0-----0---0---0---0--------------------------
B-------4-----4---4---4---4---4-5--5-5-5/7-5-5-4-5~~~--
G------------------------------------------------------
D------------------------------------------------------
A------------------------------------------------------
E------------------------------------------------------
            
Submit corrections


        Now lessons Hard to play? Try these video lessons and learn fast Now lessons
        
↑ Back to top | Tablatures and chords for acoustic guitar and electric guitar, ukulele, drums are parodies/interpretations of the original songs. You may use it for private study, scholarship, research or language learning purposes only