» » »

Def Leppard - Let It Go Tabs

Artists:  A B C D E F G H I J K L M N O P Q R S T U V W X Y Z # 

Let It Go Tabs

(ver. 1) Click to play this song!
Def Leppard
 Rating:
3.4/5 (5 votes)

 Let It Go lessons Tabs too difficult? Try these video lessons and learn fast
 
                intro:
--2------5-s-4-2--2------5-s-4----2------5-s-4 2---5-7--------------------------------
--2------5-s-4-2--2------5-s-4-5--2------5-s-4 2---5-7---------------------------------
--0-h3-0-3-s-2-0--0-h3-0-3-s-2-5--0-h3-0-3-s-2 0-x-3-5-------------------------------------------
-------------------------------3--------------------------------------
verse1
-------------------------------------------------------3---------------
--2------5-s-4--2------5-s-4---2------5-s-4-2----------2----------------------------
--2------5-s-4--2------5-s-4-5-2------5-s-4-2----------0-----------------------------
--0-h3-0-3-s-2--0-h3-0-3-s-2-5-0-h3-0-3-s-2-0---3s2p0---------------------------------------------
-----------------------------3-----------------------2------------------
verse 2 singing starts let chords ring out
--------------------------------------------------
-----------------------------------------------------
--2-5-7-------------------------------------------------
--2-5-7-7-----------------------------------------------
--0-3-5-7----------------------------------------------
--------5------------------------------------------
            
Submit corrections


        Let It Go lessons Hard to play? Try these video lessons and learn fast Let It Go lessons
        
↑ Back to top | Tablatures and chords for acoustic guitar and electric guitar, ukulele, drums are parodies/interpretations of the original songs. You may use it for private study, scholarship, research or language learning purposes only