» » »

Def Leppard - Photograph Tabs

Artists:  A B C D E F G H I J K L M N O P Q R S T U V W X Y Z # 

Photograph Tabs

(ver. 1) Click to play this song!
Def Leppard
 Rating:
4/5 (4 votes)

 Photograph lessons Tabs too difficult? Try these video lessons and learn fast
 
                Intro

Tune the normal tuning up on half step

F---------------------0 ~ -----
C----------5-5544-55--3 ~ -----
G#---------4-4444-22--2 ~ ---- Play This 2 times
D#  ------------------0 ~ ------
A#------------------------------
F   ------------------------------


F    ---------------00000-------
C   ------5-5544-55-33333-------
G# -------4-4444-22-22222------- Repeat 5 times
D#  ----------------00000------
A# ----------------------------------
F   ----------------------------------

There is some variation with the last chord, like it sounds like they 
hold that chord on 2nd 4th and the 5th times. After you play this five times
there will be 2 different guitar parts, one will carry on with that rhythm, and 
the second part to me sounds like this:

F   ------------------------------------- ---------------------
C  --------------------------------------- --------------------- 
G# ---442-----------------444-2---------- -4--2---5----------
D# ---442-x1-444444444444-444-2—x3---add- -4--2---5----------
A# ---220----222222222222-222-0---------- -2--0---3----------
F   ------------------------------------- ---------------------


F   -----------------------------------------------------
C  -----------------------------------------------------
G# ---0-----0-----0-----0-----0------0----0-----0--
D# --0-----2-----4-----4-----0-----2-----4----4----
A# -2---3------5----7------2----3------7----5----0-
F   ----------------------------------------------------

That’s the chorus I’m not sure how many times you play it.

F -3-3-3----3--3-3----2---------2---------------
C -3-3-3----3--3-3----3--2-2----3---2-2-----2----
G#-0-0-0----0--0-0----2--2-2----2---2-2-----2-----
D#-x-x-x----0--0-0----0--2-2----0---2-2-----2-----
A# 3-3-3----2--2-2-------0-0----0---0-0-----0-2 second time you play that play open
F ---------------------------------------b3-------- 
                                        1/2

Hope you enjoy, this is all I have tabbed out, some of the 
other tabs are similar but this sounds better to my eat tell
            
Submit corrections


        Photograph lessons Hard to play? Try these video lessons and learn fast Photograph lessons
        
↑ Back to top | Tablatures and chords for acoustic guitar and electric guitar, ukulele, drums are parodies/interpretations of the original songs. You may use it for private study, scholarship, research or language learning purposes only