» » »

Brand New - Not The Sun Tabs

Artists:  A B C D E F G H I J K L M N O P Q R S T U V W X Y Z # 

Not The Sun Tabs

(ver. 3) Click to play this song!
Brand New
 Rating:
4/5 (4 votes)

 Not The Sun lessons Tabs too difficult? Try these video lessons and learn fast
 
                -------------------------------------------------------------------------------
                             NOT THE SUN - Brand New
-------------------------------------------------------------------------------

Tuning: Half Step Down

This is the first tab for "Not the Sun," track #8 on Brand New's upcoming album, "The
and God are Raging Inside Me" in stores November 21st. The song isn't hard, but it is very
fun to play. I'm very confident that it's almost 100% correct. Please rate me! Thanks.

-----------
Lead (Vinnie)
-----------

[Intro]
eb|------------------------------------------------------------------------------|
Bb|--/101010-888-666-5555--------------------------------------------------------|
Gb|----------------------x2------------------------------------------------------|
Db|------------------------------------------------------------------------------|
Ab|------------------------------------------------------------------------------|
Eb|------------------------------------------------------------------------------|

eb|-----------------------------------------------------------------------------|
Bb|--131313-101010-131313-88-10--/101010-888-666-55555h6\3----------------------|
Gb|-----------------------------------------------------------------------------|
Db|-----------------------------------------------------------------------------|
Ab|-----------------------------------------------------------------------------|
Eb|-----------------------------------------------------------------------------|

[Verse] (0:23)
eb|----8-10-12-13---8-10-13-12-5---8-10-13-17-------------------------------------|
Bb|--6------------6----------------6----------------------------------------------|
Gb|-------------------------------------------------------------------------------|
Db|-------------------------------------------------------------------------------|
Ab|-------------------------------------------------------------------------------|
Eb|-------------------------------------------------------------------------------|

[Pre-Chorus] (0:36)
eb|-------------------------------------------------------------------------------|
Bb|--101010-888-666-55555---------------------------------------------------------|
Gb|-------------------------x2----------------------------------------------------|
Db|-------------------------------------------------------------------------------|
Ab|-------------------------------------------------------------------------------|
Eb|-------------------------------------------------------------------------------|

eb|-------------------------------------------------------------------------------|
Bb|-------------------------------------------------------------------------------|
Gb|-------------------------------------------------------------------------------|
Db|--777-1010101010-121212-1515151515-777-1010101010-171717-1515151515------------|
Ab|-------------------------------------------------------------------------------|
Eb|-------------------------------------------------------------------------------|

[Chorus] (0:50)
eb|-----------------------------------------------------------------------------|
Bb|-----------------------------------------------------------------------------|
Gb|-----14----------------------------------------------------------------------|
Db|--12---15-14-----------------------------------------------------------------|
Ab|-----------------------------------------------------------------------------|
Eb|-----------------------------------------------------------------------------|

[Pre Verse] (1:05)
eb|--3---------------/17b-----------------------------------------------------|
Bb|---------------------------------------------------------------------------|
Gb|---------------------------------------------------------------------------|
Db|---------------------------------------------------------------------------|
Ab|---------------------------------------------------------------------------|
Eb|---------------------------------------------------------------------------|

[Verse] (1:14)
eb|----8-10-12-13---8-10-13-12-5---8-10-13-17-------------------------------------|
Bb|--6-------------6---------------6----------------------------------------------|
Gb|-------------------------------------------------------------------------------|
Db|-------------------------------------------------------------------------------|
Ab|-------------------------------------------------------------------------------|
Eb|-------------------------------------------------------------------------------|

[Pre Chorus] (1:27)
eb|-------------------------------------------------------------------------------|
Bb|--101010-888-666-555555--------------------------------------------------------|
Gb|----------------------------x2-------------------------------------------------|
Db|-------------------------------------------------------------------------------|
Ab|-------------------------------------------------------------------------------|
Eb|-------------------------------------------------------------------------------|

eb|-------------------------------------------------------------------------------|
Bb|-------------------------------------------------------------------------------|
Gb|-------------------------------------------------------------------------------|
Db|--777-1010101010-121212-1515151515-777-1010101010-171717-1515151515------------|
Ab|-------------------------------------------------------------------------------|
Eb|-------------------------------------------------------------------------------|

[Chorus] (1:34)
eb|-----------------------------------------------------------------------------|
Bb|-----------------------------------------------------------------------------|
Gb|-----14----------------------------------------------------------------------|
Db|--12---15-14-----------------------------------------------------------------|
Ab|-----------------------------------------------------------------------------|
Eb|-----------------------------------------------------------------------------|

[Bridge] (2:04)
eb|--13-10--10-13-10--8-10-8------------------------------------------------------|
Bb|-----------------------------x9------------------------------------------------|
Gb|-------------------------------------------------------------------------------|
Db|-------------------------------------------------------------------------------|
Ab|-------------------------------------------------------------------------------|
Eb|-------------------------------------------------------------------------------|

[Pre Chorus] (2:45)
eb|-------------------------------------------------------------------------------|
Bb|--101010-888-666-55555---------------------------------------------------------|
Gb|--------------------------x2---------------------------------------------------|
Db|-------------------------------------------------------------------------------|
Ab|-------------------------------------------------------------------------------|
Eb|-------------------------------------------------------------------------------|

eb|-------------------------------------------------------------------------------|
Bb|-------------------------------------------------------------------------------|
Gb|-------------------------------------------------------------------------------|
Db|--777-1010101010-121212-1515151515-777-1010101010-171717-1414141414------------|
Ab|-------------------------------------------------------------------------------|
Eb|-------------------------------------------------------------------------------|

[Chorus/Outro] (2:52)
eb|-------------------------------------------------------------------------------|
Bb|-------------------------------------------------------------------------------|
Gb|-----14------------------------------------------------------------------------|
Db|--12---15-14-------------------------------------------------------------------|
Ab|-------------------------------------------------------------------------------|
Eb|-------------------------------------------------------------------------------|

----------------
Rhythm (Jesse)
----------------

[Verse] (0:34)
eb|---------------------------------------------------------------------------|
Bb|---------------------------------------------------------------------------|
Gb|---------------------------------------------------------------------------|
Db|---------------------------------------------------------------------------|
Ab|---5-----------------------------------------------------------------------|
Eb|--5-5-3-5-1----------------------------------------------------------------|

[Pre Chorus/Chorus] (0:36)
eb|-------------------------------------------------------------------------------|
Bb|-------------------------------------------------------------------------------|
Gb|---7--5--7--5--3--5--3--5------------------------------------------------------|
Db|---7--5--7--5--3--5--3--5------------------------------------------------------|
Ab|---5--3--5--3--1--3--1--3------------------------------------------------------|
Eb|-------------------------------------------------------------------------------|

[Pre Verse] (1:05)
eb|-----------------------------------------------------------------------------|
Bb|-----------------------------------------------------------------------------|
Gb|-----------------------------------------------------------------------------|
Db|--/17-15~--------------------------------------------------------------------|
Ab|-----------------------------------------------------------------------------|
Eb|-----------------------------------------------------------------------------|

[Verse] (1:25)
eb|---------------------------------------------------------------------------|
Bb|---------------------------------------------------------------------------|
Gb|---------------------------------------------------------------------------|
Db|---------------------------------------------------------------------------|
Ab|---5-----------------------------------------------------------------------|
Eb|--5-5-3-5-1----------------------------------------------------------------|

[Pre Chorus/Chorus] (1:27)
eb|-------------------------------------------------------------------------------|
Bb|-------------------------------------------------------------------------------|
Gb|---7--5--7--5--3--5--3--5------------------------------------------------------|
Db|---7--5--7--5--3--5--3--5------------------------------------------------------|
Ab|---5--3--5--3--1--3--1--3------------------------------------------------------|
Eb|-------------------------------------------------------------------------------|

[Bridge] (2:04)
eb|----------------------------------------------------------------------------------|
Bb|----------------------------------------------------------------------------------|
Gb|--777777-555555-333333- 8  8  8  8  8  8 -----------------------------------------|
Db|--777777-555555-333333- 8  8  8  8  8  8 -----------------------------------------|
Ab|--555555-333333-111111-101010101010----x9-----------------------------------------|
Eb|----------------------------------------------------------------------------------|

[Pre Chorus/Chorus] (2:37)
eb|-------------------------------------------------------------------------------|
Bb|-------------------------------------------------------------------------------|
Gb|---7--5--7--5--3--5--3--5------------------------------------------------------|
Db|---7--5--7--5--3--5--3--5------------------------------------------------------|
Ab|---5--3--5--3--1--3--1--3------------------------------------------------------|
Eb|-------------------------------------------------------------------------------|


| /  slide up
| \  slide down
| h  hammer-on
| p  pull-off
| ~  vibrato
| +  harmonic
| x  Mute note
===============================================================================
            
Submit corrections


        Not The Sun lessons Hard to play? Try these video lessons and learn fast Not The Sun lessons
        
↑ Back to top | Tablatures and chords for acoustic guitar and electric guitar, ukulele, drums are parodies/interpretations of the original songs. You may use it for private study, scholarship, research or language learning purposes only