» » »

Brand New - Failure By Design Whole Song Tabs

Artists:  A B C D E F G H I J K L M N O P Q R S T U V W X Y Z # 

Failure By Design Whole Song Tabs

(ver. 1) Click to play this song!
Brand New
 Rating:
4/5 (4 votes)

 Failure By Design Whole Song lessons Tabs too difficult? Try these video lessons and learn fast
 
                Brand New: Failure By Design 100% correct

Intro/Verse Riff (clean) There's a lot of palm-muting, but you figure that out, it's easy.
E ------------------------------------------------------------------------------
B -------------------------5----------------------------------------------------
G ----------------6----------6----6-----------------------h5---------5----------
D -2-2-2------------6---------------------2-2-2---x-x----4h6----------6----6----
A -2-2-2----4---------4---------4---------2-2-2---x-x----4h6-----6--------------
E--0-0-0----------------------------------0-0-0---x-x----4-----4---------4------

E-----------------------------------------------------------------------
B--------------------5--------------------------------------------------
G-------------6--------6---6---4-4---4-4-4------------------------------
D--2-2-2--------6--------------4-4---4-4-4------------------------------
A--2-2-2--4-------4------4-----2-2---2-2-2----2-2-2h4-2-0-2-0-----------
E--0-0-0--------------------------------------------------------4-2------


Pre-Chorus (distortion):
E---------------------------------------------------------------------------------
B---------------------------------------------------------------------------------
G---------------------------------------------------------------------------------
D---2------------------------------6/7-7---6/7---7----2--x-x------6-7-9-4-6-------
A---2----(Let the chord ring)------6/7-7---6/7---7----2--x-x------6-7-9-4-6-------
E---0------------------------------4/5-5---4/5---5----0--x-x------4-5-7-2-4-------

Chorus (distortion) x2:
E----------------------------------------------------------------------
B----------------------------------------------------------------------
G----------------------------------------------------------------------
D----6-6-6-6-6---6-6---6/7-7-6/7-7-2---2-2-2-2-2-----------------------
A----6-6-6-6-6---6-6---6/7-7-6/7-7-2---2-2-2-2-2-4p2-2-4p2-2-4p2-------
E----4-4-4-4-4---4-4---4/5-5-4/5-5-0---0-0-0-0-0-----------------------

E---------------------------------------------------------
B---------------------------------------------------------
G---------------------------------------------------------
D---6---6---6---6-6---6-7-9-x-4----4-4-4-x-x---6----------
A---6---6---6---6-6---6-7-9-x-4----4-4-4-x-x---6----------
E---4---4---4---4-4---4-5-7-x-2----2-2-2-x-x---4----------

Interlude:
E----------------------------------------------------
B--------------------5-------5------------------------
G--------------------6---------6--------4-4---4/6----
D -2-2-2-2-2-2-2-2---6-------------6----4-4---4/6----
A -2-2-2-2-2-2-2-2---4-------------4----2-2---2/4-----
E--0-0-0-0-0-0-0-0------------------------------------
      *PalmMute* **                *      *

  do do do ……
E---------------------------------------------------------
B---------------------------------------------------------
G---------------------6-6-6-6----4-4---4/6----------------
D---2-2-2-2-2-2-2-2---6-6-6-6----4-4---4/6----------------
A---2-2-2-2-2-2-2-2---4-4-4-4----2-2---2/4----------------
E---0-0-0-0-0-0-0-0---------------------------------------


Song Order:
Intro/Verse
Pre-chorus
Chorus
Intro/Verse
Pre-Chorus
Chorus
Interlude
Do do do
Last part of pre-chorus
Chorus


This is the song. Me and my band wanted to learn how to play it, but every tab site only 
had half the song, so I figured out the whole thing, and here it is. 
            
Submit corrections


        Failure By Design Whole Song lessons Hard to play? Try these video lessons and learn fast Failure By Design Whole Song lessons
        
↑ Back to top | Tablatures and chords for acoustic guitar and electric guitar, ukulele, drums are parodies/interpretations of the original songs. You may use it for private study, scholarship, research or language learning purposes only