» » »

Brand New - Mix Tape Tabs

Artists:  A B C D E F G H I J K L M N O P Q R S T U V W X Y Z # 

Mix Tape Tabs

(ver. 1) Click to play this song!
Brand New
 Rating:
4/5 (4 votes)

 Mix Tape lessons Tabs too difficult? Try these video lessons and learn fast
 
                INTRO/VERSE

Guitar 1
|---------------------------------------------------------|
|----2-----2-----2-----2-----2------2----0-----0-----0----|
|---2--2--2--2--2--2--2--2--2--2--2--2--2--2--2--2--2--2--|
|--2*----2-----2-----2-----0*----0-----0*----0-----0------|
|---------------------------------------------------------|
|---------------------------------------------------------|x8

Guitar 2
|----------------|---------------------------------------|
|----------------|---------------------------------------|
|----------------|---------------------------------------|
|--777777777-7-7-|-----------7--7-7-*-----------7--7-7-*-|
|--555555555-5-5-|--7--7-7---5--5-5----7--7-7---5--5-5---|
|----------------|--5--5-5-------------5--5-5------------|

Guitar 1 (fills*)
|-----------------------|
|-----------------------|
|-----------------------|
|--*-11-11-11-11-9-9-7--|
|-----------------------|
|-----------------------|x2

Guitar 1 (fills)
|------------------------------------------------------------|
|------------------------------------------------------------|
|------------------------------------------------------------|
|--------------------------------7----7---11-11-11-11-9-9-7--|
|-----7----7--9-9p7-9p7-9p7---55-5-55-5----------------------|
|--55-5-55-5-------------------------------------------------|
            
Submit corrections


        Mix Tape lessons Hard to play? Try these video lessons and learn fast Mix Tape lessons
        
↑ Back to top | Tablatures and chords for acoustic guitar and electric guitar, ukulele, drums are parodies/interpretations of the original songs. You may use it for private study, scholarship, research or language learning purposes only