» » »

Brand New - Not The Sun Tabs

Artists:  A B C D E F G H I J K L M N O P Q R S T U V W X Y Z # 

Not The Sun Tabs

(ver. 1) Click to play this song!
Brand New
 Rating:
4/5 (4 votes)

 Not The Sun lessons Tabs too difficult? Try these video lessons and learn fast
 
                Brand New

Standard

[Intro]             x2
e|--------------------|--------------------------------|
B|--------------------|--------------------------------|
G|--13---11---9---8---|--16---13---16---13---11---13---|
D|---x----x---x---x---|---x----x----x----x----x----x---|
A|--11----9---7---6---|--14---11---14---11----9---11---|
E|--------------------|--------------------------------|

[Intro Cont.]
e|------------------------|
B|------------------------|
G|--13---11---9---8/9--6--|
D|---x----x---x---x/x--x--|
A|--11----9---7---6/7--4--|
E|------------------------|

[Verse]
e|--------9-11-12-------9-12-11---------9-12-16-|
B|---9-12----------9-12---------9--9-12---------|
G|----------------------------------------------|
D|----------------------------------------------|
A|----------------------------------------------|
E|----------------------------------------------|

e|---------------------|
B|---------------------|
G|--13---11---9---8----|
D|---x----x---x---x –--|x2
A|--11----9---7---6----|
E|---------------------|

[Pre-Chorus]
e|-------------------------------------|
B|---------------------------12--------|
G|-1--4--6--9----1--4/11--9------------|
D|------------------------------9-11---|
A|-------------------------------------|
E|-------------------------------------|

[Chorus]                       x4
e|-------------------------------|----16b18r16--|
B|-------------------------------|--------------|
G|-----13-9---------13-9-11-9----|--------------|
D|--11------11-9-11--------------|-11-----------|
A|-------------------------------|--------------|
E|-------------------------------|--------------|





[Verse]
e|--------9-11-12-------9-12-11---------9-12-16-|
B|---9-12----------9-12---------9--9-12---------|
G|----------------------------------------------|
D|----------------------------------------------|
A|----------------------------------------------|
E|----------------------------------------------|

[Pre-Chorus]
e|-------------------------------------|
B|---------------------------12--------|
G|-1--4--6--9----1--4/11--9------------|
D|------------------------------9-11---|
A|-------------------------------------|
E|-------------------------------------|

[Chorus]                              x8
e|--------------------------------------|
B|--------------------------------------|
G|----13--------13----13-----13h14p13---|
D|-11----14--11----11----11-------------|
A|--------------------------------------|
E|--------------------------------------|


[Bridge]
     C#m   A  E   B      x2
e|-------------------------|
B|-------------------------|
G|----6-----------4--------|
D|----6---7---2---4--------|
A|----4---7---2---2--------|
E|--------5---0------------|


[Bridge Lead] Just a general idea.. repeated throughout bridge
e|---------12----9----9----------------|
B|-----------9----9----9---12-9--------|
G|------------11---11---11-----11------|
D|-------------------------------------|
A|-------------------------------------|
E|-------------------------------------|

[Pre-Chorus]
e|-------------------------------------|
B|---------------------------12--------|
G|-1--4--6--9----1--4/11--9------------|
D|------------------------------9-11---|
A|-------------------------------------|
E|-------------------------------------|

[Chorus]                              x4
e|--------------------------------------|
B|--------------------------------------|
G|----13--------13----13-----13h14p13---|
D|-11----14--11----11----11-------------|
A|--------------------------------------|
E|--------------------------------------|
            
Submit corrections


        Not The Sun lessons Hard to play? Try these video lessons and learn fast Not The Sun lessons
        
↑ Back to top | Tablatures and chords for acoustic guitar and electric guitar, ukulele, drums are parodies/interpretations of the original songs. You may use it for private study, scholarship, research or language learning purposes only