» » »

Brand New - Not The Sun Tabs

Artists:  A B C D E F G H I J K L M N O P Q R S T U V W X Y Z # 

Not The Sun Tabs

(ver. 2) Click to play this song!
Brand New
 Rating:
4/5 (4 votes)

 Not The Sun lessons Tabs too difficult? Try these video lessons and learn fast
 
                Not the Sun
Brandnew
The Devil and God are Raging Inside Me
Tuning: Dropped Half-Step Down
Nataku/JJ Murphy


my guitar is tuned in  dropped d/half step down (Db Ab Db Gb Bb eb)


this intro is a bass converted to guitar, sounds easy.
best sounding:
|------------------------------|
|------------------------------|
|------------------------------|
|-0--0--0-0-0------------------|
|-5--5--5-5-5------------------|
|------------8--8-8-8-10-10-10-|

or
|----------------------------|
|----------------------------|
|----------------------------|
|----------------------------|
|-5--5--5-5-5-1--1-1-1-3-3-3-|
|----------------------------|
  .  .  . . . .  . . . . . . (palm mute)

intro part 1 // guitar 1
|-xxx-----------------------------------------|
|-xxx-----------------------------------------|
|-xxx-14-14-14-14-12-12-12-10--10-10-10-10-10-|
|-xxx-0--0--0--0--0--0--0--x---x--x--x--x--x--|
|-xxx-12-12-12-12-10-10-10-8---8--8--8--8--8--|
|-xxx-----------------------------------------|


or (this one includes the bass and background noise)
|-xxx--------------------------------------------|
|-xxx--------------------------------------------|
|-xxx-14-14-14-14-12-12-12-10--10-10-10-10-10-10-|  SOUNDS BEST
|-xxx-0--0--0--0--0--0--0--x---x--x--x--x--x--x--|
|-xxx-12-12-12-12-10-10-10-8---8--8--8--8--8--8--|
|-xxx--------------------------8--8--8--10-10-10-|

intro part 2 
|----------------------------------------------|
|----------------------------------------------|
|-17-17-17-17-15-15-15-14-17-17-17-14-14-14-15-|
|-0--0--0--0--0--0--0--0--0--0--0--0--0--0--0--|
|-15-15-15-15-13-13-13-12-15-15-15-12-12-12-13-|
|----------------------------------------------|

now, altogether the intro goes

intro 1
intro 2
intro 1

now verse. for the most part its all that 'Ice, Ice, Baby' sounding bass with this:

  0:23
|----------------|
|---13--15-17-18~|
|-14--14---------|
|----------------|
|----------------|
|----------------|

  0:27
|----------------------|
|---13--15-17-18-17-15~|
|-14--14---------------|
|----------------------|
|----------------------|
|----------------------|

  0:31
|---------------17~|
|---13--15-17-18---|
|-14--14-----------|
|------------------|
|------------------|
|------------------|



the verse also sounds good with three chords below,
around the "IF YOU BREED, JUST DONT TELL ME" 
sections of the song
for strumming, just follow the bass.

|--------|
|-6-3-5--|
|-7-3-5--|
|-7-3-5--|
|-5-1-3--|
|--------|



bridge

|---------------------------------------------------------|
|---------------------------------------------------------|
|---------------------------------------------------------|
|-8-8-8-8-8-8-8-8-8-8-3-3-3-3-3-3-3-3-3-3-5-5-5-5-5-7-7-8-|
|-8-8-8-8-8-8-8-8-8-8-3-3-3-3-3-3-3-3-3-3-5-5-5-5-5-7-7-8-|
|-8-8-8-8-8-8-8-8-8-8-3-3-3-3-3-3-3-3-3-3-5-5-5-5-5-7-7-8-|

the right amount of notes arent shown, 
this just shows you that the 8's and 3's 
are strummed more than the 5's and 7's, 
then that 8 at the end means start over. 
Just strum with the song you'll get it.



then go back to the intro!

 order of song:
bass
intro 1
intro 2
intro 1
verse
bridge
intro 1
intro 2
intro 1
muted string.
            
Submit corrections


        Not The Sun lessons Hard to play? Try these video lessons and learn fast Not The Sun lessons
        
↑ Back to top | Tablatures and chords for acoustic guitar and electric guitar, ukulele, drums are parodies/interpretations of the original songs. You may use it for private study, scholarship, research or language learning purposes only