» » »

Brand New - Not The Sun Bass

Artists:  A B C D E F G H I J K L M N O P Q R S T U V W X Y Z # 

Not The Sun Bass

(ver. 1) Click to play this song!
Brand New
 Rating:
4/5 (4 votes)

 Not The Sun lessons Tabs too difficult? Try these video lessons and learn fast
 
                
Tuning: standard

intro 
G|-------------------------------------------------------|
D|--10-10-10-101010-6-6666888-10-10-10-101010-6-6666888--|
A|-------------------------------------------------------|
E|-------------------------------------------------------|

G|-----------------------------------------------------------------------------------|
D|-----------------------------------------------------------------------------------|
A|-----------------------------------------------------------------------------------|
E|--8-8-8-888-4-4444666-8-8-8-888-4-4444666-8-8-8-888-4-4444666-8-8-8-888-4-4444666--|

verse 1
G|-------------------------------------------------------|
D|--10-10-10-101010-6-6666888-10-10-10-101010-6-6666888--|
A|-------------------------------------------------------|
E|-------------------------------------------------------|

G|-------------------------------------------------------|
D|--10-10-10-101010-6-6666888-10-10-10-101010-6-6666888--|
A|-------------------------------------------------------|
E|-------------------------------------------------------|

G|-----------------------------------------------------------------------------------|
D|-----------------------------------------------------------------------------------|
A|-----------------------------------------------------------------------------------|
E|--8-8-8-888-4-4444666-8-8-8-888-4-4444666-8-8-8-888-4-4444666-8-8-8-888-4-4444666--|

chorus
G|---------------------------------------------------------------------------|
D|---------------------------------------------------------------------------|
A|---------------------------------------------------------------------------|
E|--4444444444444666-4444444444444667-8888888888888667-8888888888888666--|

G|--------------------------------------|
D|--------------------------------------|
A|--------------------------------------|
E|--4444444444444666-44444444444446677--|

verse 2
G|-------------------------------------------------------|
D|--10-10-10-101010-6-6666888-10-10-10-101010-6-6666888--|
A|-------------------------------------------------------|
E|-------------------------------------------------------|

G|-------------------------------------------------------|
D|--10-10-10-101010-6-6666888-10-10-10-101010-6-6666888--|
A|-------------------------------------------------------|
E|-------------------------------------------------------|

G|-------------------------------------------------------|
D|--10-10-10-101010-6-6666888-10-10-10-101010-6-6666888--|
A|-------------------------------------------------------|
E|-------------------------------------------------------|

chorus
G|-----------------------------------------------------------------------|
D|-----------------------------------------------------------------------|
A|-----------------------------------------------------------------------|
E|--4444444444444666-4444444444444667-8888888888888667-8888888888888666--|

G|------------------------------------------------------------------------|
D|------------------------------------------------------------------------|
A|------------------------------------------------------------------------|
E|--4444444444444666-44444444444446677-8888888888888667-8888888888888666--|

G|--------------------------------------|
D|--------------------------------------|
A|--------------------------------------|
E|--4444444444444666-44444444444446677--|

bridge
G|---------------------------------------------------------------------------|
D|---------------------------------------------------------------------------|
A|---------------------------------------------------------------------------|
E|--8-8-8-8-8-8-8-8-8-8-8-8-4-4-4-4-4-4-4-4-4-4-4-4-0-0-0-0-0-0-0-0-0-0-0-0--|

G|---------------------------------------------------------------------------|
D|---------------------------------------------------------------------------|
A|---------------------------------------------------------------------------|
E|--6-6-6-6-6-6-6-6-6-6-6-6-8-8-8-8-8-8-8-8-8-8-8-8-4-4-4-4-4-4-4-4-4-4-4-4--|

G|------------------------------------------------------------------------------|
D|---------------------------------------------------10-10-10-101010-6-6666888--|
A|------------------------------------------------------------------------------|
E|--0-0-0-0-0-0-0-0-0-0-0-0-6-6-6-6-6-6-6-6-6-6-6-6-----------------------------|

ending
G|-------------------------------------------|
D|-------------------------------------------|
A|-------------------------------------------|
E|--8-8-8-888-4-4444666-8-8-8-888-4-4444666--|

G|-----------------------------------------------------------------------|
D|-----------------------------------------------------------------------|
A|-----------------------------------------------------------------------|
E|--4444444444444666-4444444444444667-8888888888888667-8888888888888666--|


G|-------------------------------------|
D|-------------------------------------|
A|-------------------------------------|
E|--4444444444444666-4444444444444667--|


| /  slide up
| \  slide down
| h  hammer-on
| p  pull-off
| ~  vibrato
| +  harmonic
| x  Mute note
===============================================================================
            
Submit corrections


        Not The Sun lessons Hard to play? Try these video lessons and learn fast Not The Sun lessons
        
↑ Back to top | Tablatures and chords for acoustic guitar and electric guitar, ukulele, drums are parodies/interpretations of the original songs. You may use it for private study, scholarship, research or language learning purposes only