Home » B » Brand New »

Brand New - Jesus Christ Tabs

Artists:  A B C D E F G H I J K L M N O P Q R S T U V W X Y Z # 

Jesus Christ Tabs

(ver. 1) Click to play this song!
Brand New
Artist - Brand New
Album - The Devil And God Are Raging Inside Me
Song - Jesus Christ
Tuning - Standard tuning

This is off the upcoming album "The Devil And God Are Raging Inside Me" coming out 
21st. This is an amazing cd so make sure you go pick it up.


This is Jesse's part, this plays throughout the entire song and sounds identical if not 
like he plays it.
e]-----------------------------------------------------------------------]
B]----10-------10-------10-------10-------10-------10-------10-------10--]
G]--7----7---7----7---7----7---7----7---7----7---7----7---7----7---7----7]
D]9--------9--------9--------9--------7--------7--------7--------7-------]  Repeat this 
the whole song.
A]-----------------------------------------------------------------------]
E]-----------------------------------------------------------------------]

This solo is scattered throughout the song comes in first after one repetition of 
part.

e]-------------------------]        e]--------------------------]
B]-------------------------]        B]--------------------------]
G]9~-7--9/11------------7/9]        G]9~-7--9/11----------------]
D]-----------9/7--7--11----]        D]-----------9/7--7/5-5/4-4b]
A]-------------------------]        A]--------------------------]
E]-------------------------]x3 then E]--------------------------]

or

e]------------------------]         e]--------------------------]
B]------------------------]         B]--------------------------]
G]9~-7--9/11--------6--7/9]         G]9~-7--9/11----------------]
D]-----------9/7--7-------]         D]-----------9/7--7/5-5/4-4b]
A]------------------------]         A]--------------------------]
E]------------------------]x3 then  E]--------------------------]

when the solo is played the second time, there is an extention to it:

e]-----------------------------------------------------------------------]
B]-----------------------------------------------------------------------]
G]-----------------------------------------------------------------------]
D]/9--9--9--9/7--7/5-5/4--4p5--4--2/4----/9--9--9--9/7--7/5-5/4--4b~-----]
A]-----------------------------------------------------------------------]
E]-----------------------------------------------------------------------]

theres a bit more to the song layered throughout the whole song but this will get you 
in the right direction. Enjoy.
            
Submit corrections

↑ Back to top | Tablatures and chords for acoustic guitar and electric guitar, ukulele, drums are parodies/interpretations of the original songs. You may use it for private study, scholarship, research or language learning purposes only