» » »

All Time Low - Last Young Renegade Tabs

Artists:  A B C D E F G H I J K L M N O P Q R S T U V W X Y Z # 

Last Young Renegade Tabs

(ver. 5) Click to play this song!
All Time Low
 Rating:
4.3/5 (25 votes)

 Last Young Renegade  lessons Tabs too difficult? Try these video lessons and learn fast
 
                [Intro] 
E|------5-----3-----2------|
B|---3-----3-----3-----3---|
G|-------------------------|
D|-------------------------|
A|-------------------------|
E|-------------------------| x3

E|---0--0--2--0------|
B|---------------3---|
G|-------------------|
D|-------------------|
A|-------------------|
E|-------------------|

E|------5-----3-----2------|
B|---3-----3-----3-----3---|
G|-------------------------|
D|-------------------------|
A|-------------------------|
E|-------------------------| x3

E|---0--0--2--0------|
B|---------------3---|
G|-------------------|
D|-------------------|
A|-------------------|
E|-------------------|


[Verse 1] x4
E|------5-----3-----2------|
B|---3-----3-----3-----3---|
G|-------------------------|
D|-------------------------|
A|-------------------------|
E|-------------------------| x3

E|---0--0--2--0------|
B|---------------3---|
G|-------------------|
D|-------------------|
A|-------------------|
E|-------------------|


[Chorus]
E|-------------------------------------------------------------------------------------|
B|-------------------------------------------------------------------------------------|
G|---7--7--7--7------------------------------4--4--4--4--------------------------------|
D|---7--7--7--7---7---5--5--5---5--5--5--5---4--4--4--4---4---5--5--5--5--5--5--5--5---|
A|---5--5--5--5---7---5--5--5---5--5--5--5---2--2--2--2---4---5--5--5--5--5--5--5--5---|
E|----------------5---3--3--3---3--3--3--3----------------2---3--3--3--3--3--3--3--3---| x4


[Verse 2] x4
E|------5-----3-----2------|
B|---3-----3-----3-----3---|
G|-------------------------|
D|-------------------------|
A|-------------------------|
E|-------------------------| x3

E|---0--0--2--0------|
B|---------------3---|
G|-------------------|
D|-------------------|
A|-------------------|
E|-------------------|


[Chorus]
E|-------------------------------------------------------------------------------------|
B|-------------------------------------------------------------------------------------|
G|---7--7--7--7------------------------------4--4--4--4--------------------------------|
D|---7--7--7--7---7---5--5--5---5--5--5--5---4--4--4--4---4---5--5--5--5--5--5--5--5---|
A|---5--5--5--5---7---5--5--5---5--5--5--5---2--2--2--2---4---5--5--5--5--5--5--5--5---|
E|----------------5---3--3--3---3--3--3--3----------------2---3--3--3--3--3--3--3--3---| x4


[Bridge] x4
E|------5-----3-----2------|
B|---3-----3-----3-----3---|
G|-------------------------|
D|-------------------------|
A|-------------------------|
E|-------------------------| x3

E|---0--0--2--0------|
B|---------------3---|
G|-------------------|
D|-------------------|
A|-------------------|
E|-------------------|


[Chorus]
E|------5-----3-----2------|
B|---3-----3-----3-----3---|
G|-------------------------|
D|-------------------------|
A|-------------------------|
E|-------------------------| x2

E|---------------------------------------------|
B|---------------------------------------------|
G|---4--4--4--4--------------------------------|
D|---4--4--4--4---4---5--5--5--5--5--5--5--5---|
A|---2--2--2--2---4---5--5--5--5--5--5--5--5---|
E|----------------2---3--3--3--3--3--3--3--3---|

E|-------------------------------------------------------------------------------------|
B|-------------------------------------------------------------------------------------|
G|---7--7--7--7------------------------------4--4--4--4--------------------------------|
D|---7--7--7--7---7---5--5--5---5--5--5--5---4--4--4--4---4---5--5--5--5--5--5--5--5---|
A|---5--5--5--5---7---5--5--5---5--5--5--5---2--2--2--2---4---5--5--5--5--5--5--5--5---|
E|----------------5---3--3--3---3--3--3--3----------------2---3--3--3--3--3--3--3--3---| x3

E|-----------------------------------------------------|
B|-----------------------------------------------------|
G|-----------------------------------------------------|
D|---4--4--4--4--4--4--4--4---5--5--5--5--5--5--5--5---|
A|---4--4--4--4--4--4--4--4---5--5--5--5--5--5--5--5---|
E|---2--2--2--2--2--2--2--2---3--3--3--3--3--3--3--3---|            
Submit corrections


        Last Young Renegade  lessons Hard to play? Try these video lessons and learn fast Last Young Renegade  lessons
        
↑ Back to top | Tablatures and chords for acoustic guitar and electric guitar, ukulele, drums are parodies/interpretations of the original songs. You may use it for private study, scholarship, research or language learning purposes only