» » »

All Time Low - Cinderblock Garden Bass

Artists:  A B C D E F G H I J K L M N O P Q R S T U V W X Y Z # 

Cinderblock Garden Bass

(ver. 1) Click to play this song!
All Time Low
 Rating:
3.6/5 (27 votes)

 Cinderblock Garden lessons Tabs too difficult? Try these video lessons and learn fast
 
                Starts at 0.30
Verse
G|-----------------------------------------|
D|-----------------------------------------| 
A|-----7-7----5-5----3-3-------------------| x2
E|-------------------------3-3--5-5--------|

Pre-chorus
G|-----------------------------------------|
D|-----------------------------------------|
A|-----0~~----------3~~--------------------|
E|-----------------------------------------|

Chorus
G|---------------------------------------------------|
D|---------------------------------------------------|
A|---------3(x16)--------5(x8)---2(x8)---3(x8)-------|x2
E|--3(x16)---------0(x8)-----------------------------|

Post Chorus
G|------------------------------------------------------------------------------------|
D|------------------------------------------------------------------------------------|
A|--------------------3-3-3333-3-3-3333------------5-5-5555--2-2-2222--3-3-3333-------|
E|--3-3-3333-3-3-3333--------------------0-0-0000-------------------------------------|

Verse
G|-----------------------------------------|
D|-----------------------------------------| 
A|-----7-7----5-5----3-3-------------------| x2
E|-------------------------3-3--5-5--------|

Verse (part 2)
G|---------------------------------------------------------|
D|---------------------------------------------------------| 
A|-----77777777----55555555----33333333--------------------| x2
E|---------------------------------------3333--5555--------|

Pre-chorus
G|-----------------------------------------|
D|-----------------------------------------|
A|-----0~~----------3~~--------------------|
E|-----------------------------------------|

Chorus
G|---------------------------------------------------|
D|---------------------------------------------------|
A|---------3(x16)--------5(x8)---2(x8)---3(x8)-------|x2
E|--3(x16)---------0(x8)-----------------------------|

Bridge
G|---------------------------------------------------|
D|---------------------------------------------------|
A|----------3(x16)----------5(x8)--6(x8)-------------|
E|---0(x16)---------3(x16)---------------------------|

G|----------------------------------------|
D|----------------------------------------|
A|----------3(x16)----------5(x16)--------|
E|---0(x16)---------3(x16)----------------|

Final chorus
G|------------------|----------------------------------|
D|------------------|----------------------------------|
A|----------3~~~----|----------5(x8)---2(x8)---3(x8)---|
E|---3~~~-----------|---0(x8)--------------------------|

G|---------------------------------------------------|
D|---------------------------------------------------|
A|---------3(x16)--------5(x8)---2(x8)---3(x8)-------|
E|--3(x16)---------0(x8)-----------------------------|

G|------------------------------------------------------------------------------------|
D|------------------------------------------------------------------------------------|
A|--------------------3-3-3333-3-3-3333------------5-5-5555--2-2-2222--3-3-3333-------|x2
E|--3-3-3333-3-3-3333--------------------0-0-0000-------------------------------------|

End on E|---3~~~|            
Submit corrections


        Cinderblock Garden lessons Hard to play? Try these video lessons and learn fast Cinderblock Garden lessons
        
↑ Back to top | Tablatures and chords for acoustic guitar and electric guitar, ukulele, drums are parodies/interpretations of the original songs. You may use it for private study, scholarship, research or language learning purposes only