» » »

All Time Low - Cinderblock Garden Tabs

Artists:  A B C D E F G H I J K L M N O P Q R S T U V W X Y Z # 

Cinderblock Garden Tabs

(ver. 1) Click to play this song!
All Time Low
 Rating:
4/5 (4 votes)

 Cinderblock Garden lessons Tabs too difficult? Try these video lessons and learn fast
 
                -----Lead Verse----
e|--------------------------------------|
B|--------------------------------------|
G|--------------------------------------|
D|--4-4h5-5-0---4-4h5-5-0---4--4--4--4--|
A|--------------------------------------|
E|--------------------------------------|

------Rhythm Verse----
e|------------------------------------------------------------------------------|
B|------------------------------------------------------------------------------|
G|------------------------------------------------------------------------------|
D|--7-7-7-7-7-7-7-7--5-5-5-5-5-5-5-5--5-5-5-5-5-5-5-5--7-7-7-7-7-7-7-7----------|
A|--7-7-7-7-7-7-7-7--5-5-5-5-5-5-5-5--3-3-3-3-3-3-3-3--7-7-7-7-7-7-7-7----------|
E|--5-5-5-5-5-5-5-5--3-3-3-3-3-3-3-3-------------------5-5-5-5-5-5-5-5----------|
[pm...................................................................]

------Rhythm Pre-Chorus-----
e|-----------------|
B|-----------------|
G|-----------------|
D|--7~--------5~---|
A|--7~--------5~---|
E|--5~--------3~---|

-------Rhythm Chorus-----
e|------------------------------------------------------------------------|
B|------------------------------------------------------------------------|
G|---7---5----------(CONTINUOUS STRUMMING LISTEN TO THE SONG, ITS EASY)---|
D|---7---5---5---5--------------------------------------------------------|
A|---5---3---5---5--------------------------------------------------------|
E|-----------3---3--------------------------------------------------------|

------Rhythm Post-CHorus----
e|---------------------------------|
B|---------------------------------|
G|-----------------7--7--7-7-7-----| 
D|---5--5--5-5-5---7--7--7-7-7-----|
A|---5--5--5-5-5---5--5--5-5-5-----|
E|---3--3--3-3-3-------------------|

------Rhythm Bridge------                                          Final Repeat Finish ON
e|-------------------------------------------------------------------------------|---------|
B|-------------------------------------------------------------------------------|---------|
G|------------------5-5-5-5-5-5--------------------------------------------------|---------|
D|--5~---5-5-5-5----5-5-5-5-5-5---5-5-5-5-5-5-5-5-5-5---7-7-7-7---9-9-9-9--------|-9\5~--5~|
A|--5~---5-5-5-5----3-3-3-3-3-3---5-5-5-5-5-5-5-5-5-5---7-7-7-7---9-9-9-9--------|-9\5~--5~|
E|--3~---3-3-3-3------------------3-3-3-3-3-3-3-3-3-3---5-5-5-5---7-7-7-7--------|-7\3~--3~|

Order:

Verse w/Lead Verse x4
Rhythm Pre Chorus
Rhythm Chorus x2
Rhythm Post Chorus x4
Verse w/Lead Verse x4
Rhythm Pre-Chorus
Rhythm Chorus x2
Rhythm Bridge x2
Second Half Chorus x1
Chorus x1
Post-Chorus x8            
Submit corrections


        Cinderblock Garden lessons Hard to play? Try these video lessons and learn fast Cinderblock Garden lessons
        
↑ Back to top | Tablatures and chords for acoustic guitar and electric guitar, ukulele, drums are parodies/interpretations of the original songs. You may use it for private study, scholarship, research or language learning purposes only