» » »

All Time Low - Last Young Renegade Tabs

Artists:  A B C D E F G H I J K L M N O P Q R S T U V W X Y Z # 

Last Young Renegade Tabs

(ver. 4) Click to play this song!
All Time Low
 Rating:
4.3/5 (12 votes)

 Last Young Renegade  lessons Tabs too difficult? Try these video lessons and learn fast
 
                e|----------------------------------------------------------------------------|
B|----10---8---7--------10---8---7--------10---8---7--------------7-----------|
G|--7----7---7---7----7----7---7---7----7----7---7---7------9-7-9---9-7-------|
D|-----------------7-----------------7-----------------7----------------------|
A|----------------------------------------------------------------------------|
E|----------------------------------------------------------------------------|

e|----------------------------------------------------------------------------|
B|----10---8---7--------10---8---7--------10---8---7--------------7-----------|
G|--7----7---7---7----7----7---7---7----7----7---7---7------9-7-9---9-7-------|
D|-----------------7-----------------7-----------------7----------------------|
A|----------------------------------------------------------------------------|
E|----------------------------------------------------------------------------|

e|-----------------------------------------------------------------------------|
B|----10---8---7---------10---8---7---------10---8---7-------------7-----------|
G|--7----7---7---7-----7----7---7---7-----7----7---7---7-----9-7-9---9-7-------|
D|-----------------7------------------7------------------7---------------------|
A|-----------------------------------------------------------------------------|
E|-----------------------------------------------------------------------------|
    JUST A COUPLE      THE SUMMER STREET  CHASING AROUND     FLICKER BEAT
    KIDS ON                               A 

e|----------------------------------------------------------------------------|
B|----10---8---7---------10---8---7---------10---8---7--------------7---------|
G|--7----7---7---7-----7----7---7---7-----7----7---7---7------9-7-9---9-7-----|
D|-----------------7------------------7------------------7--------------------|
A|----------------------------------------------------------------------------|
E|----------------------------------------------------------------------------|
    MAKING MISTAKES    THAT WERE MADE     WE BRUSHED THEM      LIKE PAPER CUTS
                       FOR US             OFF 

e|----------------------------------------------------------------------------|
B|----10---8---7---------10---8---7---------10---8---7--------------7---------|
G|--7----7---7---7-----7----7---7---7-----7----7---7---7------9-7-9---9-7-----|
D|-----------------7------------------7------------------7--------------------|
A|----------------------------------------------------------------------------|
E|----------------------------------------------------------------------------|
    YOU SAID YOU'RE    OF IT IT           BUT I NEED YOU      NIGHT AND DAY AY
    SICK AND TIRED                        MORE THAN           OH OH OH

e|----------------------------------------------------------------------------|
B|----10---8---7---------10---8---7---------10---8---7--------------7---------|
G|--7----7---7---7-----7----7---7---7-----7----7---7---7------9-7-9---9-7-----|
D|-----------------7------------------7------------------7--------------------|
A|----------------------------------------------------------------------------|
E|----------------------------------------------------------------------------|
    I MISS YOU EVERY   WAY AY AY          WE SAID FOREVER     WOULDN'T WAIT
    SINGLE                                BUT FOREVER         FOR US

e|---------------------------------------------------------------------------------|
B|---------------------------------------------------------------------------------|
G|--7-7-7-7---------------------------------4-4-4-4--------------------------------|
D|--7-7-7-7------7------5-5-5-5--5-5-5-5----4-4-4-4------4----5-5-5-5--5-5-5-5-----|
A|--5-5-5-5------7------5-5-5-5--5-5-5-5----2-2-2-2------4----5-5-5-5--5-5-5-5-----|
E|---------------5------3-3-3-3--3-3-3-3-----------------2----3-3-3-3--3-3-3-3-----|
    YOU WERE MY  YOUNG  RENEGADE HEARTACHE  IT ONLY TOOK ONE  NIGHT
    LAST

e|---------------------------------------------------------------------------------|
B|---------------------------------------------------------------------------------|
G|--7-7-7-7---------------------------------4-4-4-4--------------------------------|
D|--7-7-7-7------7------5-5-5-5--5-5-5-5----4-4-4-4------4----5-5-5-5--5-5-5-5-----|
A|--5-5-5-5------7------5-5-5-5--5-5-5-5----2-2-2-2------4----5-5-5-5--5-5-5-5-----|
E|---------------5------3-3-3-3--3-3-3-3-----------------2----3-3-3-3--3-3-3-3-----|
    CAUGHT IN    OF     HURRICANE DARLING   WE HAD TO   GOOD  BYE
    THE EYE                                 SAY

e|----------------------------------------------------------------------------|
B|----10---8---7---------10---8---7---------10---8---7--------------7---------|
G|--7----7---7---7-----7----7---7---7-----7----7---7---7------9-7-9---9-7-----|
D|-----------------7------------------7------------------7--------------------|
A|----------------------------------------------------------------------------|
E|----------------------------------------------------------------------------|


e|----------------------------------------------------------------------------|
B|----10---8---7---------10---8---7---------10---8---7--------------7---------|
G|--7----7---7---7-----7----7---7---7-----7----7---7---7------9-7-9---9-7-----|
D|-----------------7------------------7------------------7--------------------|
A|----------------------------------------------------------------------------|
E|----------------------------------------------------------------------------|
    UNDERNEATH THE     MOTORWAY           THAT'S WHERE I      KEEP THE GHOST
    LIGHTS OF THE                         GO TO               AWAY

e|----------------------------------------------------------------------------|
B|----10---8---7---------10---8---7---------10---8---7--------------7---------|
G|--7----7---7---7-----7----7---7---7-----7----7---7---7------9-7-9---9-7-----|
D|-----------------7------------------7------------------7--------------------|
A|----------------------------------------------------------------------------|
E|----------------------------------------------------------------------------|
    WE USED TO BE     A BURNING FLAME     NOW WE'RE JUST      IN SUMMER RAIN
    SUCH                                  SMOKE  

e|----------------------------------------------------------------------------|
B|----10---8---7---------10---8---7---------10---8---7--------------7---------|
G|--7----7---7---7-----7----7---7---7-----7----7---7---7------9-7-9---9-7-----|
D|-----------------7------------------7------------------7--------------------|
A|----------------------------------------------------------------------------|
E|----------------------------------------------------------------------------|
    YOU SAID YOU'RE    OF IT IT           BUT I NEED YOU      NIGHT AND DAY AY
    SICK AND TIRED

e|----------------------------------------------------------------------------|
B|----10---8---7---------10---8---7---------10---8---7--------------7---------|
G|--7----7---7---7-----7----7---7---7-----7----7---7---7------9-7-9---9-7-----|
D|-----------------7------------------7------------------7--------------------|
A|----------------------------------------------------------------------------|
E|----------------------------------------------------------------------------|
    I MISS YOU EVERY   WAY AY AY          WE SAID FOREVER     WOULDN'T WAIT
    SINGLE                                BUT FOREVER         FOR US

e|---------------------------------------------------------------------------------|
B|---------------------------------------------------------------------------------|
G|--7-7-7-7---------------------------------4-4-4-4--------------------------------|
D|--7-7-7-7------7------5-5-5-5--5-5-5-5----4-4-4-4------4----5-5-5-5--5-5-5-5-----|
A|--5-5-5-5------7------5-5-5-5--5-5-5-5----2-2-2-2------4----5-5-5-5--5-5-5-5-----|
E|---------------5------3-3-3-3--3-3-3-3-----------------2----3-3-3-3--3-3-3-3-----|
    YOU WERE MY  YOUNG  RENEGADE HEARTACHE  IT ONLY TOOK ONE  NIGHT
    LAST

e|---------------------------------------------------------------------------------|
B|---------------------------------------------------------------------------------|
G|--7-7-7-7---------------------------------4-4-4-4--------------------------------|
D|--7-7-7-7------7------5-5-5-5--5-5-5-5----4-4-4-4------4----5-5-5-5--5-5-5-5-----|
A|--5-5-5-5------7------5-5-5-5--5-5-5-5----2-2-2-2------4----5-5-5-5--5-5-5-5-----|
E|---------------5------3-3-3-3--3-3-3-3-----------------2----3-3-3-3--3-3-3-3-----|
    CAUGHT IN    OF     HURRICANE DARLING   WE HAD TO   GOOD  BYE
    THE EYE

e|----------------------------------------------------------------------------------|
B|----------------------------------------------------------------------------------|
G|--7-7-7-7---------------------------------4-4-4-4---------------------------------|
D|--7-7-7-7------7------5-5-5-5--5-5-5-5----4-4-4-4------4-----5-5-5-5--5-5-5-5-----|
A|--5-5-5-5------7------5-5-5-5--5-5-5-5----2-2-2-2------4-----5-5-5-5--5-5-5-5-----|
E|---------------5------3-3-3-3--3-3-3-3-----------------2-----3-3-3-3--3-3-3-3-----|
    I WANNA     THAT    YOU'RE SOMEWHERE    SOMEWHERE    THIS  ROAD
    KNOW                OUT THERE           DOWN 

e|---------------------------------------------------------------------------------|
B|---------------------------------------------------------------------------------|
G|--7-7-7-7---------------------------------4-4-4-4--------------------------------|
D|--7-7-7-7------7------5-5-5-5--5-5-5-5----4-4-4-4------4----5-5-5-5--5-5-5-5-----|
A|--5-5-5-5------7------5-5-5-5--5-5-5-5----2-2-2-2------4----5-5-5-5--5-5-5-5-----|
E|---------------5------3-3-3-3--3-3-3-3-----------------2----3-3-3-3--3-3-3-3-----|
    YOU WERE MY  YOUNG  RENEGADE HEARTACHE  HOW COULD    YOU  HOW COULD I LET YOU
    LAST                                    I LET

e|----------------------------------------------------------------------------|
B|----10---8---7---------10---8---7---------10---8---7--------------7---------|
G|--7----7---7---7-----7----7---7---7-----7----7---7---7------9-7-9---9-7-----|
D|-----------------7------------------7------------------7--------------------|
A|----------------------------------------------------------------------------|
E|----------------------------------------------------------------------------|
    GO

e|----------------------------------------------------------------------------|
B|----10---8---7---------10---8---7---------10---8---7--------------7---------|
G|--7----7---7---7-----7----7---7---7-----7----7---7---7------9-7-9---9-7-----|
D|-----------------7------------------7------------------7--------------------|
A|----------------------------------------------------------------------------|
E|----------------------------------------------------------------------------|

e|----------------------------------------------------------------------------|
B|----10---8---7---------10---8---7---------10---8---7--------------7---------|
G|--7----7---7---7-----7----7---7---7-----7----7---7---7------9-7-9---9-7-----|
D|-----------------7------------------7------------------7--------------------|
A|----------------------------------------------------------------------------|
E|----------------------------------------------------------------------------|
    YOU WERE           THE BEST THING     EVER HAPPENED       TO ME

e|----------------------------------------------------------------------------|
B|----10---8---7---------10---8---7---------10---8---7--------------7---------|
G|--7----7---7---7-----7----7---7---7-----7----7---7---7------9-7-9---9-7-----|
D|-----------------7------------------7------------------7--------------------|
A|----------------------------------------------------------------------------|
E|----------------------------------------------------------------------------|
    AND I              KEEP ON FIGHTING  JUST TO MAKE YOU     BELIEVE

e|------------------------------------------------------------------------------|
B|----10---8---7---------------10---8---7---------------------------------------|
G|--7----7---7---7-----------7----7---7---7-------4-4-4-4-----------------------|
D|-----------------7------------------------7-----4-4-4-4--4--5-5-5-5--5-5-5-5--|
A|------------------------------------------------2-2-2-2--4--5-5-5-5--5-5-5-5--|
E|---------------------------------------------------------2--3-3-3-3--3-3-3-3--|
    YOU WERE MY LAST YOUNG   RENEGADE HEARTACHE   IT ONLY TOOK ONE  NIGHT

e|---------------------------------------------------------------------------------|
B|---------------------------------------------------------------------------------|
G|--7-7-7-7---------------------------------4-4-4-4--------------------------------|
D|--7-7-7-7------7------5-5-5-5--5-5-5-5----4-4-4-4------4----5-5-5-5--5-5-5-5-----|
A|--5-5-5-5------7------5-5-5-5--5-5-5-5----2-2-2-2------4----5-5-5-5--5-5-5-5-----|
E|---------------5------3-3-3-3--3-3-3-3-----------------2----3-3-3-3--3-3-3-3-----|
    CAUGHT IN    OF     HURRICANE DARLING   WE HAD TO   GOOD  BYE
    THE EYE

e|----------------------------------------------------------------------------------|
B|----------------------------------------------------------------------------------|
G|--7-7-7-7---------------------------------4-4-4-4---------------------------------|
D|--7-7-7-7------7------5-5-5-5--5-5-5-5----4-4-4-4------4-----5-5-5-5--5-5-5-5-----|
A|--5-5-5-5------7------5-5-5-5--5-5-5-5----2-2-2-2------4-----5-5-5-5--5-5-5-5-----|
E|---------------5------3-3-3-3--3-3-3-3-----------------2-----3-3-3-3--3-3-3-3-----|
    I WANNA     THAT    YOU'RE SOMEWHERE    SOMEWHERE    THIS  ROAD
    KNOW                OUT THERE           DOWN 

e|---------------------------------------------------------------------------------|
B|---------------------------------------------------------------------------------|
G|--7-7-7-7---------------------------------4-4-4-4--------------------------------|
D|--7-7-7-7------7------5-5-5-5--5-5-5-5----4-4-4-4------4----5-5-5-5--5-5-5-5-----|
A|--5-5-5-5------7------5-5-5-5--5-5-5-5----2-2-2-2------4----5-5-5-5--5-5-5-5-----|
E|---------------5------3-3-3-3--3-3-3-3-----------------2----3-3-3-3--3-3-3-3-----|
    YOU WERE MY  YOUNG  RENEGADE HEARTACHE  HOW COULD    YOU  HOW COULD I LET YOU
    LAST                                    I LET

e|--------------------------------------------------|
B|--------------------------------------------------|
G|--------------------------------------------------|
D|--4-4-4-4--4-4-4-4-----5-5-5-5--5-5-5-5-----------|
A|--4-4-4-4--4-4-4-4-----5-5-5-5--5-5-5-5-----------|
E|--2-2-2-2--2-2-2-2-----3-3-3-3--3-3-3-3-----------|
    DON'T WANNA LET YOU  I'LL NEVER LET YOU GO

e|----------------------------------------------------------------------------|
B|----10---8---7---------10---8---7---------10---8---7--------------7---------|
G|--7----7---7---7-----7----7---7---7-----7----7---7---7------9-7-9---9-7-----|
D|-----------------7------------------7------------------7--------------------|
A|----------------------------------------------------------------------------|
E|----------------------------------------------------------------------------|

e|----------------------------------------------------------------------------|
B|----10---8---7---------10---8---7---------10---8---7--------------7---------|
G|--7----7---7---7-----7----7---7---7-----7----7---7---7------9-7-9---9-7-----|
D|-----------------7------------------7------------------7--------------------|
A|----------------------------------------------------------------------------|
E|----------------------------------------------------------------------------|


LAST YOUNG RENEGADE 
DROP D TUNING VERSION

e|----------------------------------------------------------------------------|
B|----10---8---7--------10---8---7--------10---8---7--------------7-----------|
G|--7----7---7---7----7----7---7---7----7----7---7---7------9-7-9---9-7-------|
D|-----------------7-----------------7-----------------7----------------------|
A|----------------------------------------------------------------------------|
D|----------------------------------------------------------------------------|

e|----------------------------------------------------------------------------|
B|----10---8---7--------10---8---7--------10---8---7--------------7-----------|
G|--7----7---7---7----7----7---7---7----7----7---7---7------9-7-9---9-7-------|
D|-----------------7-----------------7-----------------7----------------------|
A|----------------------------------------------------------------------------|
D|----------------------------------------------------------------------------|

e|-----------------------------------------------------------------------------|
B|----10---8---7---------10---8---7---------10---8---7-------------7-----------|
G|--7----7---7---7-----7----7---7---7-----7----7---7---7-----9-7-9---9-7-------|
D|-----------------7------------------7------------------7---------------------|
A|-----------------------------------------------------------------------------|
D|-----------------------------------------------------------------------------|
    JUST A COUPLE      THE SUMMER STREET  CHASING AROUND     FLICKER BEAT
    KIDS ON                               A

e|----------------------------------------------------------------------------|
B|----10---8---7---------10---8---7---------10---8---7--------------7---------|
G|--7----7---7---7-----7----7---7---7-----7----7---7---7------9-7-9---9-7-----|
D|-----------------7------------------7------------------7--------------------|
A|----------------------------------------------------------------------------|
D|----------------------------------------------------------------------------|
    MAKING MISTAKES    THAT WERE MADE     WE BRUSHED THEM      LIKE PAPER CUTS
                      FOR US             OFF

e|----------------------------------------------------------------------------|
B|----10---8---7---------10---8---7---------10---8---7--------------7---------|
G|--7----7---7---7-----7----7---7---7-----7----7---7---7------9-7-9---9-7-----|
D|-----------------7------------------7------------------7--------------------|
A|----------------------------------------------------------------------------|
D|----------------------------------------------------------------------------|
    YOU SAID YOU'RE    OF IT IT           BUT I NEED YOU      NIGHT AND DAY AY
    SICK AND TIRED                        MORE THAN           OH OH OH

e|----------------------------------------------------------------------------|
B|----10---8---7---------10---8---7---------10---8---7--------------7---------|
G|--7----7---7---7-----7----7---7---7-----7----7---7---7------9-7-9---9-7-----|
D|-----------------7------------------7------------------7--------------------|
A|----------------------------------------------------------------------------|
D|----------------------------------------------------------------------------|
    I MISS YOU EVERY   WAY AY AY          WE SAID FOREVER     WOULDN'T WAIT
    SINGLE                                BUT FOREVER         FOR US

e|---------------------------------------------------------------------------------|
B|---------------------------------------------------------------------------------|
G|--7-7-7-7---------------------------------4-4-4-4--------------------------------|
D|--7-7-7-7------7------5-5-5-5--5-5-5-5----4-4-4-4------4----5-5-5-5--5-5-5-5-----|
A|--5-5-5-5------7------5-5-5-5--5-5-5-5----2-2-2-2------4----5-5-5-5--5-5-5-5-----|
D|---------------7------5-5-5-5--5-5-5-5-----------------4----5-5-5-5--5-5-5-5-----|
    YOU WERE MY  YOUNG  RENEGADE HEARTACHE  IT ONLY TOOK ONE  NIGHT
    LAST

e|---------------------------------------------------------------------------------|
B|---------------------------------------------------------------------------------|
G|--7-7-7-7---------------------------------4-4-4-4--------------------------------|
D|--7-7-7-7------7------5-5-5-5--5-5-5-5----4-4-4-4------4----5-5-5-5--5-5-5-5-----|
A|--5-5-5-5------7------5-5-5-5--5-5-5-5----2-2-2-2------4----5-5-5-5--5-5-5-5-----|
D|---------------7------5-5-5-5--5-5-5-5-----------------4----5-5-5-5--5-5-5-5-----|
    CAUGHT IN    OF     HURRICANE DARLING   WE HAD TO   GOOD  BYE
    THE EYE                                 SAY

e|----------------------------------------------------------------------------|
B|----10---8---7---------10---8---7---------10---8---7--------------7---------|
G|--7----7---7---7-----7----7---7---7-----7----7---7---7------9-7-9---9-7-----|
D|-----------------7------------------7------------------7--------------------|
A|----------------------------------------------------------------------------|
D|----------------------------------------------------------------------------|

e|----------------------------------------------------------------------------|
B|----10---8---7---------10---8---7---------10---8---7--------------7---------|
G|--7----7---7---7-----7----7---7---7-----7----7---7---7------9-7-9---9-7-----|
D|-----------------7------------------7------------------7--------------------|
A|----------------------------------------------------------------------------|
D|----------------------------------------------------------------------------|
    UNDERNEATH THE     MOTORWAY           THAT'S WHERE I      KEEP THE GHOST
    LIGHTS OF THE                         GO TO               AWAY

e|----------------------------------------------------------------------------|
B|----10---8---7---------10---8---7---------10---8---7--------------7---------|
G|--7----7---7---7-----7----7---7---7-----7----7---7---7------9-7-9---9-7-----|
D|-----------------7------------------7------------------7--------------------|
A|----------------------------------------------------------------------------|
D|----------------------------------------------------------------------------|
    WE USED TO BE     A BURNING FLAME     NOW WE'RE JUST      IN SUMMER RAIN
    SUCH                                  SMOKE  

e|----------------------------------------------------------------------------|
B|----10---8---7---------10---8---7---------10---8---7--------------7---------|
G|--7----7---7---7-----7----7---7---7-----7----7---7---7------9-7-9---9-7-----|
D|-----------------7------------------7------------------7--------------------|
A|----------------------------------------------------------------------------|
D|----------------------------------------------------------------------------|
    YOU SAID YOU'RE    OF IT IT           BUT I NEED YOU      NIGHT AND DAY AY
    SICK AND TIRED

e|----------------------------------------------------------------------------|
B|----10---8---7---------10---8---7---------10---8---7--------------7---------|
G|--7----7---7---7-----7----7---7---7-----7----7---7---7------9-7-9---9-7-----|
D|-----------------7------------------7------------------7--------------------|
A|----------------------------------------------------------------------------|
D|----------------------------------------------------------------------------|
    I MISS YOU EVERY   WAY AY AY          WE SAID FOREVER     WOULDN'T WAIT
    SINGLE                                BUT FOREVER         FOR US

e|---------------------------------------------------------------------------------|
B|---------------------------------------------------------------------------------|
G|--7-7-7-7---------------------------------4-4-4-4--------------------------------|
D|--7-7-7-7------7------5-5-5-5--5-5-5-5----4-4-4-4------4----5-5-5-5--5-5-5-5-----|
A|--5-5-5-5------7------5-5-5-5--5-5-5-5----2-2-2-2------4----5-5-5-5--5-5-5-5-----|
D|---------------7------5-5-5-5--5-5-5-5-----------------4----5-5-5-5--5-5-5-5-----|
    YOU WERE MY  YOUNG  RENEGADE HEARTACHE  IT ONLY TOOK ONE  NIGHT
    LAST

e|---------------------------------------------------------------------------------|
B|---------------------------------------------------------------------------------|
G|--7-7-7-7---------------------------------4-4-4-4--------------------------------|
D|--7-7-7-7------7------5-5-5-5--5-5-5-5----4-4-4-4------4----5-5-5-5--5-5-5-5-----|
A|--5-5-5-5------7------5-5-5-5--5-5-5-5----2-2-2-2------4----5-5-5-5--5-5-5-5-----|
D|---------------7------5-5-5-5--5-5-5-5-----------------4----5-5-5-5--5-5-5-5-----|
    CAUGHT IN    OF     HURRICANE DARLING   WE HAD TO   GOOD  BYE
    THE EYE

e|---------------------------------------------------------------------------------|
B|---------------------------------------------------------------------------------|
G|--7-7-7-7---------------------------------4-4-4-4--------------------------------|
D|--7-7-7-7------7------5-5-5-5--5-5-5-5----4-4-4-4------4----5-5-5-5--5-5-5-5-----|
A|--5-5-5-5------7------5-5-5-5--5-5-5-5----2-2-2-2------4----5-5-5-5--5-5-5-5-----|
D|---------------7------5-5-5-5--5-5-5-5-----------------4----5-5-5-5--5-5-5-5-----|
    I WANNA     THAT    YOU'RE SOMEWHERE    SOMEWHERE    THIS  ROAD
    KNOW                OUT THERE           DOWN

e|---------------------------------------------------------------------------------|
B|---------------------------------------------------------------------------------|
G|--7-7-7-7---------------------------------4-4-4-4--------------------------------|
D|--7-7-7-7------7------5-5-5-5--5-5-5-5----4-4-4-4------4----5-5-5-5--5-5-5-5-----|
A|--5-5-5-5------7------5-5-5-5--5-5-5-5----2-2-2-2------4----5-5-5-5--5-5-5-5-----|
D|---------------7------5-5-5-5--5-5-5-5-----------------4----5-5-5-5--5-5-5-5-----|
    YOU WERE MY  YOUNG  RENEGADE HEARTACHE  HOW COULD    YOU  HOW COULD I LET YOU
    LAST                                    I LET

e|----------------------------------------------------------------------------|
B|----10---8---7---------10---8---7---------10---8---7--------------7---------|
G|--7----7---7---7-----7----7---7---7-----7----7---7---7------9-7-9---9-7-----|
D|-----------------7------------------7------------------7--------------------|
A|----------------------------------------------------------------------------|
D|----------------------------------------------------------------------------|
    GO

e|----------------------------------------------------------------------------|
B|----10---8---7---------10---8---7---------10---8---7--------------7---------|
G|--7----7---7---7-----7----7---7---7-----7----7---7---7------9-7-9---9-7-----|
D|-----------------7------------------7------------------7--------------------|
A|----------------------------------------------------------------------------|
D|----------------------------------------------------------------------------|

e|----------------------------------------------------------------------------|
B|----10---8---7---------10---8---7---------10---8---7--------------7---------|
G|--7----7---7---7-----7----7---7---7-----7----7---7---7------9-7-9---9-7-----|
D|-----------------7------------------7------------------7--------------------|
A|----------------------------------------------------------------------------|
D|----------------------------------------------------------------------------|
    YOU WERE           THE BEST THING     EVER HAPPENED       TO ME

e|----------------------------------------------------------------------------|
B|----10---8---7---------10---8---7---------10---8---7--------------7---------|
G|--7----7---7---7-----7----7---7---7-----7----7---7---7------9-7-9---9-7-----|
D|-----------------7------------------7------------------7--------------------|
A|----------------------------------------------------------------------------|
D|----------------------------------------------------------------------------|
    AND I              KEEP ON FIGHTING  JUST TO MAKE YOU     BELIEVE

e|------------------------------------------------------------------------------|
B|----10---8---7---------------10---8---7---------------------------------------|
G|--7----7---7---7-----------7----7---7---7-------4-4-4-4-----------------------|
D|-----------------7------------------------7-----4-4-4-4--4--5-5-5-5--5-5-5-5--|
A|------------------------------------------------2-2-2-2--4--5-5-5-5--5-5-5-5--|
D|---------------------------------------------------------4--5-5-5-5--5-5-5-5--|
    YOU WERE MY LAST YOUNG   RENEGADE HEARTACHE   IT ONLY TOOK ONE  NIGHT

e|---------------------------------------------------------------------------------|
B|---------------------------------------------------------------------------------|
G|--7-7-7-7---------------------------------4-4-4-4--------------------------------|
D|--7-7-7-7------7------5-5-5-5--5-5-5-5----4-4-4-4------4----5-5-5-5--5-5-5-5-----|
A|--5-5-5-5------7------5-5-5-5--5-5-5-5----2-2-2-2------4----5-5-5-5--5-5-5-5-----|
D|---------------7------5-5-5-5--5-5-5-5-----------------4----5-5-5-5--5-5-5-5-----|
    CAUGHT IN    OF     HURRICANE DARLING   WE HAD TO   GOOD  BYE
    THE EYE

e|---------------------------------------------------------------------------------|
B|---------------------------------------------------------------------------------|
G|--7-7-7-7---------------------------------4-4-4-4--------------------------------|
D|--7-7-7-7------7------5-5-5-5--5-5-5-5----4-4-4-4------4----5-5-5-5--5-5-5-5-----|
A|--5-5-5-5------7------5-5-5-5--5-5-5-5----2-2-2-2------4----5-5-5-5--5-5-5-5-----|
D|---------------7------5-5-5-5--5-5-5-5-----------------4----5-5-5-5--5-5-5-5-----|
    I WANNA     THAT    YOU'RE SOMEWHERE    SOMEWHERE    THIS  ROAD
    KNOW                OUT THERE           DOWN

e|---------------------------------------------------------------------------------|
B|---------------------------------------------------------------------------------|
G|--7-7-7-7---------------------------------4-4-4-4--------------------------------|
D|--7-7-7-7------7------5-5-5-5--5-5-5-5----4-4-4-4------4----5-5-5-5--5-5-5-5-----|
A|--5-5-5-5------7------5-5-5-5--5-5-5-5----2-2-2-2------4----5-5-5-5--5-5-5-5-----|
D|---------------7------5-5-5-5--5-5-5-5-----------------4----5-5-5-5--5-5-5-5-----|
    YOU WERE MY  YOUNG  RENEGADE HEARTACHE  HOW COULD    YOU  HOW COULD I LET YOU
    LAST                                    I LET

e|--------------------------------------------------|
B|--------------------------------------------------|
G|--------------------------------------------------|
D|--4-4-4-4--4-4-4-4-----5-5-5-5--5-5-5-5-----------|
A|--4-4-4-4--4-4-4-4-----5-5-5-5--5-5-5-5-----------|
D|--4-4-4-4--4-4-4-4-----5-5-5-5--5-5-5-5-----------|
    DON'T WANNA LET YOU  I'LL NEVER LET YOU GO

e|----------------------------------------------------------------------------|
B|----10---8---7---------10---8---7---------10---8---7--------------7---------|
G|--7----7---7---7-----7----7---7---7-----7----7---7---7------9-7-9---9-7-----|
D|-----------------7------------------7------------------7--------------------|
A|----------------------------------------------------------------------------|
D|----------------------------------------------------------------------------|

e|----------------------------------------------------------------------------|
B|----10---8---7---------10---8---7---------10---8---7--------------7---------|
G|--7----7---7---7-----7----7---7---7-----7----7---7---7------9-7-9---9-7-----|
D|-----------------7------------------7------------------7--------------------|
A|----------------------------------------------------------------------------|
D|----------------------------------------------------------------------------|            
Submit corrections


        Last Young Renegade  lessons Hard to play? Try these video lessons and learn fast Last Young Renegade  lessons
        
↑ Back to top | Tablatures and chords for acoustic guitar and electric guitar, ukulele, drums are parodies/interpretations of the original songs. You may use it for private study, scholarship, research or language learning purposes only