Home » A » All Time Low »

All Time Low - Last Young Renegade Tabs

Artists:  A B C D E F G H I J K L M N O P Q R S T U V W X Y Z # 

Last Young Renegade Tabs

(ver. 2) Click to play this song!
All Time Low
 Rating:
4.3/5 (26 votes)
                [Verse 1]
e|------------------------------------------------------------------------------------|
B|---10-----8---7----------10-----8---7---------10----8---7---------------7-----------|
G|-7-----7--------7-----7------7--------7-----7-----7-------7-----9--7-9-----9--7-----|
D|------------------7---------------------7-------------------7-----------------------| (4 times)
A|------------------------------------------------------------------------------------|
D|------------------------------------------------------------------------------------|

[Chorus]
e|---------------------------------------------------------------------------|
B|---------------------------------------------------------------------------|
G|-7-7-7-7-------------------------------------------------------------------|
D|-7-7-7-7---7--5-5-5-5-5-5-5----9-9-9-9---5--5-5-5-5-5-5-5-5----------------| (2 times)
A|-5-5-5-5---7--5-5-5-5-5-5-5----9-9-9-9---5--5-5-5-5-5-5-5-5----------------|
D|-----------5--3-3-3-3-3-3-3----7-7-7-7---2--3-3-3-3-3-3-3-3----------------|

[Verse 2]
e|------------------------------------------------------------------------------------|
B|---10-----8---7----------10-----8---7---------10----8---7---------------7-----------|
G|-7-----7--------7-----7------7--------7-----7-----7-------7-----9--7-9-----9--7-----|
D|------------------7---------------------7-------------------7-----------------------| (6 times)
A|------------------------------------------------------------------------------------|
D|------------------------------------------------------------------------------------|

[Chorus]
e|---------------------------------------------------------------------------|
B|---------------------------------------------------------------------------|
G|-7-7-7-7-------------------------------------------------------------------|
D|-7-7-7-7---7--5-5-5-5-5-5-5----9-9-9-9---5--5-5-5-5-5-5-5-5----------------| (2 times)
A|-5-5-5-5---7--5-5-5-5-5-5-5----9-9-9-9---5--5-5-5-5-5-5-5-5----------------|
D|-----------5--3-3-3-3-3-3-3----7-7-7-7---2--3-3-3-3-3-3-3-3----------------|

[Bridge]
e|------------------------------------------------------------------------------------|
B|---10-----8---7----------10-----8---7---------10----8---7---------------7-----------|
G|-7-----7--------7-----7------7--------7-----7-----7-------7-----9--7-9-----9--7-----|
D|------------------7---------------------7-------------------7-----------------------| (4 times)
A|------------------------------------------------------------------------------------|
D|------------------------------------------------------------------------------------|

[Chorus]
e|---------------------------------------------------------------------------|
B|---------------------------------------------------------------------------|
G|-7-7-7-7-------------------------------------------------------------------|
D|-7-7-7-7---7--5-5-5-5-5-5-5----9-9-9-9---5--5-5-5-5-5-5-5-5----------------| (4 times)
A|-5-5-5-5---7--5-5-5-5-5-5-5----9-9-9-9---5--5-5-5-5-5-5-5-5----------------|
D|-----------5--3-3-3-3-3-3-3----7-7-7-7---2--3-3-3-3-3-3-3-3----------------|

e|---------------------------------------------------------------------------|
B|---------------------------------------------------------------------------|
G|---------------------------------------------------------------------------|
D|--4-4-4-4-4-4-4---5-5-5-5-5-5-5-5-5----------------------------------------| 
A|--5-5-5-5-5-5-5---5-5-5-5-5-5-5-5-5----------------------------------------|
D|--2-2-2-2-2-2-2---3-3-3-3-3-3-3-3-3----------------------------------------|            
Submit corrections

↑ Back to top | Tablatures and chords for acoustic guitar and electric guitar, ukulele, drums are parodies/interpretations of the original songs. You may use it for private study, scholarship, research or language learning purposes only